Bendize a Jeová, Ó Minha Alma (Acordes)

Testemunhas de Jeová

Subida por rsala

Compartir


Cambiar Cifrado
Americano Latino

Cambiar Tonalidad
-1 +1
Imprimir FAQ

Para cambio de tonalidad, zoom, cambio de cifrado, haz clic en este botón


CONSEJO:

Afina tu guitarra antes de tocar. Prueba nuestro afinador en linea.

+A
-A

Texto

Desplazamiento

Transportador

Color de Fondo

Archivos

TONALIDAD, TAMAÑO, CIFRADO, SCROL.

Nos renovamos: Ahora puedes cambiar TODO haciendo clic en ICONO de la Guitarra () que aparece en la parte inferior de esta página.


LETRA CON ACORDES

e|-------------------------------------------------------------|
B|-------------------------------1-----------------------------|
G|-------------0-----2--0-0--2-3--------------0----------------|
D|-----3-3--2-----3--0----2------3--3-3--2-3--3----------------|
A|--3----5--3--3--------------------5-5--2---------------------|
E|--5----------------------------------------------------------|

e|-------------------------------------------------------------|
B|-------------------------------------------------------------|
G|-------------0-----2--0-0--2-3-2-----0-----------------------|
D|-----3-3--2-----3--0----2------3--3--0--3--2-3---------------|
A|--3----5--3--3--------------------5-----5--3-3---------------|
E|--5----------------------------------------------------------|

e|-------------------------------------------------------------|
B|--------0-----0--1-3-3-1--1----3----1------------------------|
G|--2-------------------------0----0-----3--2--2--0------------|
D|--2--2--2--2--2------2----2----3----2--5-----3--2------------|
A|-------------------------------------------------------------|
E|-------------------------------------------------------------|

e|-------------------------------------------------------------|
B|------------------------1--1--3--1---------------------------|
G|-------------0-----2--3----------------0---------------------|
D|-----3-3--2-----3--3----3--1-----2--2--0--3--2--3------------|
A|--3----5--3--3----------------------3-----5--3--3------------|
E|--5---------------------------------------------5------------|


Video Clip de Bendize a Jeová, Ó Minha Alma


ACORDES PARA GUITARRA

PIANO UKELELE


TOP 20: Las más tocadas de Testemunhas de Jeová


Acordes

Cerrar

22.38


162