Eu Penso No Dia (Acordes)

Testemunhas de Jeová

Subida por Mario

Compartir


Imprimir FAQ
+A
-A

Texto

Desplazamiento

Transportador

Color de Fondo

Archivos

-A
+A
Intro: D  D/B  D  D/B

          D                 D/B
E|--------5-0------|----5-0-----------|
B|------3-----3----|-3----------------|
G|----2---------2--|--2---------------|
D|--0--------------|------------------|
A|-----------------|------------------|
E|-----------------|------------------|

D                  D/B
Quanta dor eu tenho que sentir,
D                 D/B
e como vou sobreviver? 
Em          D/F#    G
Eu fecho os olhos e posso ver 
Em      D/F#  G   G/B A
um novo tempo pra viver... 

D           Em    Bm7      G
Eu penso no dia feliz, sem dor, 
   D     Em        Bm7    G
de vida nova cheia de amor
D           Em      Bm7       G
Eu penso no dia que vou agradecer: 
D    Em       D/F#    G          A
Obrigado pela vida, a cada amanhecer. 

D                  D/B
Nenhum som consegue me tocar, 
D                   D/B
eu sinto a luz enfraquecer, 
Em      D/F#    G
então começo a imaginar... 
Em        D/F#    G G/B A
Posso escutar, Eu posso ver! 

D           Em    Bm7      G
Eu penso no dia feliz, sem dor, 
   D     Em        Bm7    G
de vida nova cheia de vigor. 
D           Em      Bm7       G
Eu penso no dia que vou agradecer: 
D    Em       D/F#    G          A
Obrigado pela vida, a cada amanhecer. 

Base do Solo: Em   D/F#   G
              Em   D/F#   G  G/B   A
Solo:

E|--9p10h9-----9p10h9-----|-----7---------|
B|---------10---------10--|--7--------5---|
G|------------------------|--------7------|
D|------------------------|---------------|
A|--7---------------------|-----0---------|
E|------------------------|---------------|

E|------------------------|-----------5---|
B|--2p3h2-----2p3h2-------|--------3------|
G|--------2---------2-----|-----3---------|
D|------------------------|--4------------|
A|--2---------2-----------|-----5---------|
E|------------------------|---------------|

Bm7                  G
Talvez não seja como quero ser, 
Em        D/F#    G G/B A
com liberdade irei correr. 

D           Em    Bm       G
Eu penso no dia feliz, sem dor, 
   D     Em        Bm    G
de vida nova cheia de vigor. 
D           Em         Bm           G
Correr por aí, rir, dançar, pode sentir 
D     Em             Bm        G
cada dia, é sempre o mais feliz. 

D           Em    Bm       G
Eu penso no dia feliz, sem dor,
   D     Em        Bm    G
de vida nova cheia de vigor. 
D           Em      Bm       G
Eu penso no dia que vou agradecer: 
D    Em       D/F#    G          D
Obrigado a cada amanhecer

Video Clip de Eu Penso No Dia


ACORDES PARA GUITARRA

PIANO UKELELE
D
D/B
Em
D/F#
G
G/B
A
Bm7
Bm


TOP 20: Las más tocadas de Testemunhas de Jeová


Acordes

Cerrar
D
D/B
Em
D/F#
G
G/B
A
Bm7
Bm

10.21

x

120