Cântico 141-Procuramos Os Amigos da Paz (Acordes)

Testemunhas de Jeová


Subida por RIVERACARLOS302

Compartir


Cambiar Cifrado
Americano Latino

Cambiar Tonalidad
-1 +1
Imprimir FAQ

Para cambio de tonalidad, zoom, cambio de cifrado, haz clic en este botón


CONSEJO:

Afina tu guitarra antes de tocar. Prueba nuestro afinador en linea.

+A
-A

Texto

Desplazamiento

Transportador

Color de Fondo

Archivos

TONALIDAD, TAMAÑO, CIFRADO, SCROL.

Nos renovamos: Ahora puedes cambiar TODO haciendo clic en ICONO de la Guitarra () que aparece en la parte inferior de esta página.


LETRA CON ACORDES

E)---2------0------2----3--------2--------2----0--0-------0----------------------
B)-----------------------------------------------------3-------------------------
G)-------------------------------------------------------------------------------
D)-------------------------------------------------------------------------------
A)-------------------------------------------------------------------------------
E)-------------------------------------------------------------------------------

E)---2--2----0-------------------0-------------------0----2----0--2----5----0----
B)----------------3---------3---------3---------3--------------------------------
G)-----------------------2-------------------2-----------------------------------
D)-------------------------------------------------------------------------------
A)-------------------------------------------------------------------------------
E)-------------------------------------------------------------------------------

E)---2------0------2----3--------2--------2----0--0-------0----------------------
B)-----------------------------------------------------3-------------------------
G)-------------------------------------------------------------------------------
D)-------------------------------------------------------------------------------
A)-------------------------------------------------------------------------------
E)-------------------------------------------------------------------------------

E)---2--2----0---------------0--2----7--------5--------2----0--2----5----0-------
B)----------------3--------------------------------------------------------------
G)-------------------------------------------------------------------------------
D)-------------------------------------------------------------------------------
A)-------------------------------------------------------------------------------
E)-------------------------------------------------------------------------------

E)------3----3--2----2----0----0--------------3----3--2------2----5----0---------
B)---3----------------------------3--------3------------------------------3------
G)-------------------------------------------------------------------------------
D)-------------------------------------------------------------------------------
A)-------------------------------------------------------------------------------
E)-------------------------------------------------------------------------------

E)------3----3--2----2----0--0---------0--2----0---------------------------------
B)---3----------------------------3----------------------------------------------
G)-------------------------------------------------------------------------------
D)-------------------------------------------------------------------------------
A)-------------------------------------------------------------------------------
E)-------------------------------------------------------------------------------

E)---2-------------2--0------------------0----------0---------5------2--0--------
B)------------------------------------------3----3---------3-----------------3---
G)--------------2----------------------------------------------------------------
D)-------------------------------------------------------------------------------
A)-------------------------------------------------------------------------------
E)-------------------------------------------------------------------------------

E)---2-------------2--0------------------0----------0------2--7------5--2----0---
B)------------------------------------------3----3-------------------------------
G)--------------2----------------------------------------------------------------
D)-------------------------------------------------------------------------------
A)-------------------------------------------------------------------------------
E)-------------------------------------------------------------------------------

E)---2-------------2--0--------------------------0-------------------------------
B)----------------------------------------3-------------3------------------------
G)--------------2--------------------2-------------------------------------------
D)-------------------------------------------------------------------------------
A)-------------------------------------------------------------------------------
E)-------------------------------------------------------------------------------

Video Clip de Cântico 141-Procuramos Os Amigos da Paz


ACORDES PARA GUITARRA

PIANO UKELELE
E
B
G
D
A


TOP 20: Las más tocadas de Testemunhas de Jeová


Acordes

Cerrar
E
B
G
D
A

20.20


88