Cântico 77 (143) Luz num Mundo Sombrio (Acordes)

Testemunhas de Jeová

Subida por Abelardo

Compartir


Cambiar Cifrado
Americano Latino

Cambiar Tonalidad
-1 +1
Imprimir FAQ

Para cambio de tonalidad, zoom, cambio de cifrado, haz clic en este botón


CONSEJO:

Afina tu guitarra antes de tocar. Prueba nuestro afinador en linea.

+A
-A

Texto

Desplazamiento

Transportador

Color de Fondo

Archivos

TONALIDAD, TAMAÑO, CIFRADO, SCROL.

Nos renovamos: Ahora puedes cambiar TODO haciendo clic en ICONO de la Guitarra () que aparece en la parte inferior de esta página.


LETRA CON ACORDES

Part1                                                            F?A                              
E|-----------------------------------------------------------------------------------------------|
B|-----------------------------3----------------------------------1------------------------------|
G|-----------------0----------------------------------------------2------------------------------|
D|-----------------0----------------------------------------------3------------------------------|
A|------0----------2----------------------------------------------0---------------0--------------|
E|-----------------------------------------------------------------------------------------------|

Part2
E|-----------------------------------------------------------------------------------------------|
B|-----------------------------------------------------0-----------------3-----------------------|
G|-----------------------------------------------------0-----------------------------------------|
D|-----------------------------------------------------2-----------------------------------------|
A|----0------0---------------------------0-------------------------------------------------------|
E|-----------------------------------------------------------------------------------------------|

Part3
        F?A                              
E|-----------------------------------------------------------------------------------------------|
B|-------1----------0----------------------------------------------------------------------------|
G|------ 2-----------------2---------------------------------------------------------------------|
D|-------3---------------------------------------------------------------------------------------|
A|-------0---------------------------------------------------0----------------0------------------|
E|-----------------------------------------------------------------------------------------------|

Part4                                                               F?A                              
E|-----------------------------------------------------------------------------------------------|
B|----------------------0---------------3----------------------------1---------------------------|
G|----------------------0--------------------------------------------2---------------------------|
D|----------------------2--------------------------------------------3---------------------------|
A|-----0-------------------------------------------------------------0----------0----------------|
E|-----------------------------------------------------------------------------------------------|

Part5                                                               F?A                              
E|-----------------------------------------------------------------------------------------------|
B|-------------------------------------------------------------------1-----------0---------------|
G|------------------0--------------3---------------------------------2-------------------2-------|
D|------------------0------------------------------------------------3---------------------------|
A|---0--------------2------------------------------------------------0---------------------------|
E|-----------------------------------------------------------------------------------------------|

Part6
                                                  F         Em           C
E|-----------------------------------------------------------------------------------------------|
B|------------------0---------3-------------------1----------0-----------------------------------|
G|------------------0---------------------------- 2----------0-----------0-----------------------|
D|------------------2-----------------------------3----------2-----------2-----------------------|
A|---0--------------------------------------------0----------------------3-----------------------|
E|-----------------------------------------------------------0-----------------------------------|

Part7
                                       D?A                              
E|-----------------------------------------------------------------------------------------------|
B|-----------------------------------------------------------------------------------------------|
G|-------2-----------------------------(2)-------------------------------------------------------|
D|-------0---------------------------------------------------------------------------------------|
A|-------0---------0--------------------0--------------0----------------2------------------------|
E|-----------------------------------------------------------------------------------------------|

Part8
                     F?A                               G
E|-------------------------------0---------------------------------------------------------------|
B|--------------------1--------------------------------3-----------------------------------------|
G|--------------------2--------------------------------0-----------------------------------------|
D|--------------------3--------------------------------0-------------0---------------------------|
A|-----3-----------------------------------------------------------------------------------------|
E|-----------------------------------------------------3----------------------------3------------|

Part9
                        F                              G
E|-------------------------------0---------------------------------------------------------------|
B|---------------------1------------------------------3--------------1-----0---------------------|
G|---------------------2------------------------------0------------------------------------------|
D|---------------------3------------------------------0------------------------------------------|
A|-----------------------------------------------------------------------------------------------|
E|------1---------------------------------------------3--------------------------------3---------|

Part10
 Bb                                                      C
E|-----------------------------------1------------------0----------------3-----------------------|
B|--------------------3---------------------------------1----------------------------1-----------|
G|--------------------3---------------------------------2----------------------------------------|
D|-----------------------------------------------------------------------------------------------|
A|----1-------------------------------------------------3----------------------------------------|
E|-----------------------------------------------------------------------------------------------|

Part11
      Gm                                                      C
E|-----------------------------------------------------------------------------------------------|
B|----3------------------------------------------------------------------------------------------|
G|----3-----------------------------------------------0-------------------------------0----------|
D|----5------------------------5----------------------2------------------2-----------------------|
A|-----------------5----------------------------------3------------------------------------------|
E|----3------------------------------------------------------------------------------------------|

Part12
           Dm                                                         Bb
E|----------1-------------------------------1-------3-----------------5--------------------------|
B|----------3---------------3-----------------------------------------6---------6----------------|
G|----------2----------------------2----------------------------------0--------------------------|
D|----------0------------------------------------------------------------------------------------|
A|-----------------------------------------------------------------------------------------------|
E|--------------------------------------------------------------------6--------------------6-----|

Part 13
         F?D                                                   G
E|-------5----------------------------------------------------3-------------1----------0---------|
B|-------6---------------6------------------------------------0----------------------------------|
G|-------5-------------------------5--------------------------0----------------------------------|
D|-------0---------------------------------------------------------------------------------------|
A|-----------------------------------------------------------------------------------------------|
E|------------------------------------------------------------3----------------------------------|

Part14
              Dm                                                 F?A
E|----------------------------------0------------------------------------------------------------|
B|------------3---------------------------3-----1-----------------------------------------1------|
G|------------2---------------------------------------------------2------------------------------|
D|------------0----------0----------------------------------------3------------------------------|
A|----------------------------------------------------------------0---------0--------------------|
E|-----------------------------------------------------------------------------------------------|

Part15
        C                                           G
E|-----------------------------------------------------------------------------------------------|
B|-------------------------------------------------1-------------0----------3--------------------|
G|-------0-----------------------------------------0------------------------------------0--------|
D|------2---------2-------------------------------0----------------------------------------------|
A|-------3-----------------------3---------------------------------------------------------------|
E|-------------------------------------------------3---------------------------------------------|

Part16
           Dm                                                 Bb
E|--------1---------------------------1------3----------------5----------------------------------|
B|--------3---------3-----------------------------------------6------------6---------------------|
G|--------2-----------------2---------------------------------0----------------------------------|
D|--------0--------------------------------------------------------------------------------------|
A|-----------------------------------------------------------------------------------------------|
E|------------------------------------------------------------6-----------------------------6----|

Part17

E|-------5---------------------------------------3---------------1----------0--------------------|
B|-------6---------6-----------------------------1-----------------------------------------------|
G|-------5----------------5----------------------0-----------------------------------------------|
D|-------0---------------------------------------------------------------------------------------|
A|-----------------------------------------------3-----------------------------------------------|
E|-----------------------------------------------------------------------------------------------|

Part18
           Dm                               F?A
E|-----------------------------------------------------------------------------------------------|
B|--------3------------------1-------------------------------------------------------------------|
G|--------2----------------------------------2---------------------------------------------------|
D|--------0----------------------------------3-------------------3-------------------------------|
A|------------------0------------------------0--------0------------------------------------------|
E|-----------------------------------------------------------------------------------------------|

Part19
          C                                             G
E|-----------------------------------------------------------------------------------------------|
B|-----------------------------------------------------1-----------0-----------------------------|
G|-------0----------------------0----------------------0--------------------0--------------------|
D|-------2----------2----------------------------------0-----------------------------------------|
A|-------3---------------------------------------------------------------------------------------|
E|-----------------------------------------------------3-----------------------------------------|

Part20
E|-----------------------------------------------------------------------------------------------|
B|-----------------------------------------------------------------------------------------------|
G|-----------------------------------------------------------------------------------------------|
D|---------2---------2------------------------------2--------2-----------------------------------|
A|---------0---------0------------------------------0--------0-----------------------------------|
E|-----------------------------------------------------------------------------------------------|

Video Clip de Cântico 77 (143) Luz num Mundo Sombrio


ACORDES PARA GUITARRA

PIANO UKELELE
F
A
Em
C
D
G
Bb
Gm
Dm


TOP 20: Las más tocadas de Testemunhas de Jeová


Acordes

Cerrar
F
A
Em
C
D
G
Bb
Gm
Dm

02.19


175