Certifique-se do Que É Mais Importante (Acordes)

Testemunhas de Jeová

Subida por Edgar121581

Compartir


Cambiar Cifrado
Americano Latino

Cambiar Tonalidad
-1 +1
Imprimir FAQ

Para cambio de tonalidad, zoom, cambio de cifrado, haz clic en este botón


CONSEJO:

Afina tu guitarra antes de tocar. Prueba nuestro afinador en linea.

+A
-A

Texto

Desplazamiento

Transportador

Color de Fondo

Archivos

TONALIDAD, TAMAÑO, CIFRADO, SCROL.

Nos renovamos: Ahora puedes cambiar TODO haciendo clic en ICONO de la Guitarra () que aparece en la parte inferior de esta página.


LETRA CON ACORDES

E|--------------------------------------------------------------------------------|
B|--------------------------------------------------------------------------------|
G|-------2---------4---------3-0--2--2---0-----0------0--0---2------------------2-|
D|-----4---0--4--4---2--4--4----------------4------0------------2--4-4----2--0-0--|
A|--0----------------------------------0-------------------------------4----------|
E|-----------------------------------------------3---------3----------------------|

E|--------------------------------------------------------------------------|
B|--------------------------------------------------------------------------|
G|--0----0-------------------0-------0---------------------0----------3-----|
D|-----4------4--4-2----4--4---2--4----0-4--2--0-4----0--2---0---2--4-----0-|
A|---------2---------1-----------------------------4--------------------4---|
E|--------------------------------------------------------------------------|

E|----------------------------------------------------------------------------------|
B|-----------0---3-0-2-3-0------------2---0-2--------------0-----0------------------|
G|-----0--2----0------------2--0--2-----2-----2--0-----0-----0-2---0--------------0-|
D|--4-------------------------------4---------------4----2------------4-2-2-0-2-4---|
A|----------------------------------------------------------------------------------|
E|----------------------------------------------------------------------------------|

E|--------------------------------------------------------------------------------|
B|-----0---3-0-2-3--0--------------------------------------0----------------------|
G|--2----0-------------2--0--2-----------2--0-----0-------------------------------|
D|-----------------------------2-----4-2-------4-----4--2----------0----2-0-0---0-|
A|-------------------------------0-4-------------------------0--4--0--0-------0-0-|
E|--------------------------------------------------------------------------------|


Video Clip de Certifique-se do Que É Mais Importante


ACORDES PARA GUITARRA

PIANO UKELELE


TOP 20: Las más tocadas de Testemunhas de Jeová


Acordes

Cerrar

17.18


217