Com Fé Tudo É Possível (Acordes)

Testemunhas de Jeová

Subida por Alitanbri

Compartir


Cambiar Cifrado
Americano Latino

Cambiar Tonalidad
-1 +1
Imprimir FAQ

Para cambio de tonalidad, zoom, cambio de cifrado, haz clic en este botón


CONSEJO:

Afina tu guitarra antes de tocar. Prueba nuestro afinador en linea.

+A
-A

Texto

Desplazamiento

Transportador

Color de Fondo

Archivos

TONALIDAD, TAMAÑO, CIFRADO, SCROL.

Nos renovamos: Ahora puedes cambiar TODO haciendo clic en ICONO de la Guitarra () que aparece en la parte inferior de esta página.


LETRA CON ACORDES

Afinação em Drop-D (DADGBE)

        D              D9                D4                D
|------2-------|-0-----0-----0-|-------4----------|-2-----2-----2|
|---3-----3----|----3-----3----|----3-----3-----3-|----3-----3---|
|------------2-|---------------|-------------2----|--------------|
|--------------|---------------|------------------|--------------|
|--------------|---------------|------------------|--------------|
|-0------------|---------------|-0----------------|--------------|

       D/G             D9/G           D4/G               G5(9)
|------2-------|-0-----0-----0-|-------4----------|-2-----2-----2|
|---3-----3----|----3-----3----|----3-----3-----3-|----3-----3---|
|------------2-|---------------|-------------2----|--------------|
|--------------|---------------|------------------|--------------|
|--------------|---------------|------------------|--------------|
|-3------------|---------------|-3----------------|--------------|

Intro: D D9 D4 D 2x

    D            D9
Eu tenho mil perguntas
     D4          D
Não acho explicação
    D                 D9
Mas o que eu vi foi lindo 
     D4    D
Deu direção

       D/G D9/G D4/G G5(9)
É foi lindo...
         D D9 D4 D
Deu direção

D               D9
Duvidas que eu tinha
  D4           D
Ficaram para trás
   D           D9
O que me preocupava 
     D4     D
Não penso mais

     D/G D9/G D4/G G9
E agora...
           D D9 G A D
Posso ter paz
 
       Bm   A
Nessa estrada
G      D9
Posso ver
Bm     A      G A D
Nada é impossível

       Bm    A
Se com fé andar
G    D9
E viver
Bm      A    G
Nada é impossível

             (D D9 D4 D) 2x
Tudo é possível...

   D          D9
O amor que aprendo
  D4          D
E vou compartilhar
D               D9
Estou bem preparada 
     D4  D
Pra ajudar
        
        D/G D9/G D4/G G5(9)
O que aprendo...
           D D9 D4 D
Quero ensinar

   D          D9
A chama da verdade 
   D4         D
Tocou meu coração
      D           D9
Não quero que se apague
D4               D
Está em minhas mãos

       D/G D9/G D4/G G9
Essa chama...
          D D9 G A D
Quero manter

       Bm   A
Nessa estrada
G      D9
Posso ver
Bm     A      G A D
Nada é impossível

       Bm    A
Se com fé andar
G    D9
E viver
Bm      A    G
Nada é impossível
             
           D D9 D4 D
Tudo é possível...

          Bm  A     G     A
Quando o dia trás, dor demais
Bm    A    G  A
Frio tempestades
Bm      A    G   A
Suplicando, orando
      Bm  A   G  A
Em Jeová confiando

          D         A
Que diz tenha fé estou aqui
Bb          C
Nunca deve desistir
G              A
Força dou pra conseguir
G       A      D
Vencer isso juntos

       Bm   A
Nessa estrada
G      D9
Posso ver
Bm     A      G A D
Nada é impossível

       Bm    A
Se com fé andar
G    D9
E viver
Bm      A    G
Nada é impossível

    Bm      A
E agora eu sei
G      D
Posso ver
Bm     A       G A D
Nada é impossível

       Bm    A
Se com fé andar
G    D
E viver
Bm     A    G
Nada é impossível

             D D9 G A D
Tudo é possível...

Video Clip de Com Fé Tudo É Possível


ACORDES PARA GUITARRA

PIANO UKELELE
D
D9
D4
D/G
D9/G
D4/G
Gadd9
G9
G
A
Bm
Bb
C


TOP 20: Las más tocadas de Testemunhas de Jeová


Acordes

Cerrar
D
D9
D4
D/G
D9/G
D4/G
Gadd9
G9
G
A
Bm
Bb
C

22.23


161