Este É o Caminho (Acordes)

Testemunhas de Jeová

Subida por hackemiko

Compartir


Cambiar Cifrado
Americano Latino

Cambiar Tonalidad
-1 +1
Imprimir FAQ

Para cambio de tonalidad, zoom, cambio de cifrado, haz clic en este botón


CONSEJO:

Afina tu guitarra antes de tocar. Prueba nuestro afinador en linea.

+A
-A

Texto

Desplazamiento

Transportador

Color de Fondo

Archivos

TONALIDAD, TAMAÑO, CIFRADO, SCROL.

Nos renovamos: Ahora puedes cambiar TODO haciendo clic en ICONO de la Guitarra () que aparece en la parte inferior de esta página.


LETRA CON ACORDES

E|---------------------------------------------------------------|
B|--0--1--3-----3-----------1--0----------0----------------------|
G|--------------0-------0---------0---2--------------------------|
D|--------------0---0--------------------------------------------|
A|---------------------------------------------------------------|
E|--------------3------------------------------------------------|

E|---------------------------------------------------------------|
B|--0--------3------0--1--3------0----------1--0---------0-------|
G|-----2--2----------------------0--0-------2--0--0--2-----------|
D|--------------0----------------0-----0-------------0-----------|
A|---------------------------------------------------------------|
E|--3----------------------------3----------2--0-----------------|

E|--------0-----------0------0-------------------------0---------|
B|--3--1-------1--3----------1----------1-----------1------------|
G|--0-------------0----------2----2----------2---2---------------|
D|---------------------------2-------2-------0-------------------|
A|--3-------------2----------0-----------------------------------|
E|---------------------------------------------------------------|

E|--2-------------------------2----3---------0----------0---3-----|
B|-----3--------------0---3--------1-------------1--1-------------|
G|---------4-----------------------0---0---------0----------------|
D|---------------------------------2-----2-------2----------------|
A|--2----------2--2----------------3-------------0----------------|
E|----------------------------------------------------------------|

E|---3---2---5-----3--3--2-----3-------------------5---5----2-----|
B|---5-------5-----------------0-----------3---3------------------|
G|---5-------5---------------------0-----------2------------------|
D|---0-------0-------------------------0--------------------------|
A|-----------------------------3----------------------------------|
E|---------------------------------------------2------------------|

E|-3---------------3--2-----------0------------------3---3---7---|
B|-0------------------3--3--------1----------3---3-----------0---|
G|-0--0-----0---------4-----------0------0-------------------0---|
D|-------2-----0------------------2--2-----------------------0---|
A|--------------------------------3--------------2---------------|
E|-0-----------------------------------------2-------------------|

E|-5----0--0--2--3----3-----2-----5---3------7--------5--3--2----|
B|-3----2-------------1-----1--3------0------0--------0----------|
G|-0----0-------------0--0--------2---0------0--------0----------|
D|-2----2--------------------------------------------------------|
A|-0----0-------------0-----0-----2---2------3----4--------------|
E|-------------------------------------2-------------------------|

E|---3------------------------------------------------------------|
B|---0----3----1----1---------------------------------------------|
G|---0------------------2----0-------0----------------------------|
D|---0----0--------------------------0----------------------------|
A|-----------------------------------2----------------------------|
E|-----------------------------------3----------------------------|


Video Clip de Este É o Caminho


ACORDES PARA GUITARRA

PIANO UKELELE


TOP 20: Las más tocadas de Testemunhas de Jeová


Acordes

Cerrar

01.45


206