as EVERY WORD FROM YOUR MOUTH IS A KNIFE IN MY EAR | The Bravery | Acordes

Every Word From Your Mouth Is A Knife In My Ear

The Bravery

Acordes

Subida por karlanic12



Cambiar Cifrado
Americano Latino

Cambiar Tonalidad
-1 +1

Partir Pantalla Imprimir FAQ

+A
-A

Tabbed By: zacky gates
e-mail: *

Tuning: Standard


Sounds great with a bit of distortion...You can figure out the timing on the
Verse yourself

Intro
G|---------------------------------------------------------------------------|
D|--------0-------------------------------0-0-0-0----------------------------|
A|-2-------------0--------2-------2-2-2-2---------0-0-0-0-2-2-2-2h4-0--------|
E|---------------------------------------------------------------------------|

Chorus
G|----4----4-----4-----4-----7-----7----7----7-----2-----2------2------2-----|
D|---------------------------------------------------------------------------|
A|-2----2-----2-----2-----5-----5----5----5-----0-----0-----0------0---------|
E|---------------------------------------------------------------------------|

G|----4----4-----4-----2-----4-----4----4----4------7------7------7------7---|
D|---------------------------------------------------------------------------|
A|-2----2-----2-----0-----2-----2----2----2-----5------5------5------5-------|
E|---------------------------------------------------------------------------|

G|----2------2------2-------2------------------------------------------------|
D|---------------------------------------------------------------------------|
A|-0-----0------0-------0----------------------------------------------------|
E|---------------------------------------------------------------------------|

Verse (First line x8)
G|---------------------------------------------------------------------------|
D|---------------0-2-2h3-0--0h2----------------------------------------------|
A|--2-2h4-0--2h4----------------0--------------------------------------------|
E|---------------------------------------------------------------------------|

G|---------------------------------------------------------------------------|
D|-0-2-2--0-2-2--0-2-2--0-2-2------------------------------------------------|
A|-----------------------------0-2-2--0-2-2--0-2-2--0-2-2--------------------|
E|---------------------------------------------------------------------------|

G|---------------------------------------------------------------------------|
D|-0-2-2--0-2-2--0-2-2-------------------------------------------------------|
A|---------------------------------------------------------------------------|
E|---------------------------------------------------------------------------|

(Chorus again x2)

(Verse again)

(Chorus again x2)

-Guitar solo- (First part of Verse x5, then second part)

(Intro, Chorus again)

(First part of verse x2, end on B note on A string)


NUEVO FORO DE MÚSICA

¿Tienes alguna duda, consulta, pregunta, consejo o algo para compartir sobre esta canción?

¡Puedes abrir un hilo en el FORO para que la comunidad te ayude! Hacer una pregunta

ACORDES PARA GUITARRA

PIANO UKELELE


Las más tocadas de The Bravery