Falling All Around You

The Coral

Acordes

Butterfly House (2010)
Subida por icaro277



Cambiar Cifrado
Americano Latino

Cambiar Tonalidad
-1 +1

Partir Pantalla Imprimir FAQ

+A
-A
	  



st


Intro: G C/G G


G C/G G
A kiss
D Dsus2 D
I'll take it with me now
Am Asus2 Am
I've heard the story's out
G C/G G
All over town

G C/G G
I laugh
D Dsus2 D
And fall down to my knees
Am Asus2 Am
Like paper tumbling
G C/G G
Through the streets

Bm
In the morning
Am
When the sun will rise
G Am Bm Am
And the day is new
Am Bm Am G (Fill I)
I'm falling all around you...

G Am Bm Am

Am Bm Am G (Fill I)
I'm falling all around you...



G C/G G
The sheets
D Dsus2 D
Where you lay with me love
Am Asus2 Am
In the quiet hours
G C/G G
Before dawn

G C/G G
You said
D Dsus2 D
I'm like a sinking stone
Am Asus2 Am
But some stories
G C/G G
Should not be told



Bm
At the dawning
Am
When the seagull flies
G Am Bm Am
And the day is new

Am Bm Am G (Fill I)
I'm falling all around you...



Interlude (Fill II)




Bm
In the morning
Am
When the sun will rise
G Am Bm Am
And the day is new
Am Bm Am G (Fill I)
I'm falling all around you...

G Am Bm Am

Am Bm Am G (Fill I)
I'm falling all around you...



repeat......


hide this tabHide tab
Fills

I

G Am Bm Am Am Bm Am G
e|----------------------------------------|
B|--8--10--12--10-----10--12--10--8-------|
G|----------------------------------------|
D|--9--10--12--10-----10--12--10--9-------|
A|----------------------------------------|
E|----------------------------------------|

II
Bm Am G C G Bm Am G C G Bm Am G
e|------------------------------------------------------------------|
B|---12--10--8-h10---17--15--10s12--12-10--8---3s5--1----12--10--8--|
G|------------------------------------------------------------------|
D|---12--10--9--9----17--16--10s12--12-10--9---3s5--2----12--10--9--|
A|------------------------------------------------------------------|
E|------------------------------------------------------------------|tab

NUEVO FORO DE MÚSICA

¿Tienes alguna duda, consulta, pregunta, consejo o algo para compartir sobre esta canción?

¡Puedes abrir un hilo en el FORO para que la comunidad te ayude! Hacer una pregunta

ACORDES PARA GUITARRA

PIANO UKELELE
G
C/G
D
Dsus2
Am
Asus2
Bm
C


Las más tocadas de The Coral

G
C/G
D
Dsus2
Am
Asus2
Bm
C