Waiting For The Heartaches (Acordes)

The Coral

Full Álbum: The Coral (2002)
Subida por Herni

Compartir


Cambiar Cifrado
Americano Latino

Cambiar Tonalidad
-1 +1
Imprimir FAQ
+A
-A

Texto

Desplazamiento

Transportador

Color de Fondo

Archivos

TONALIDAD, TAMAÑO, CIFRADO, SCROL.

Nos renovamos: Ahora puedes cambiar TODO haciendo clic en ICONO de la Guitarra () que aparece en la parte inferior de esta página.


LETRA CON ACORDES


Intro:

Bass guitar:

G---------------------------------------------------------------------------------------|
D---------------------------------------------------------------------------------------|
A-------------------------2-------------------------------------------------------------|
e  ---0--0--0--3--3-2--2----3--2--0-----------------------------------------------------|

Clean guitar:

     G                 F#    B
--3----3--3---2-s--7-------------------------------------------------------------------|
--3----3--3---2-s--7-------------------------------------------------------------------|
--4----4--4---3-s--8-------------------------------------------------------------------|
---------------------------------------------------------------------------------------|
---------------------------------------------------------------------------------------|
---------------------------------------------------------------------------------------|

Chords:

G: -3-5-5-4-3-3-|
F# -2-4-4-3-2-2-|
B  -7-9-9-8-7-7-|
C  -x-3-5-5-5-3-|
A  -x-0-2-2-2-0-|

Verse:

G                      F#        B
Why do I listen to sad songs?
    G                                                 F#               B
To make me feel good when I know I've done wrong

Pre-chorus:
C                        G
But I can't understand.
C                                 G
Why she's holding my hand.
C                         G        A
No I can't understand, at all

Chorus:

G                             F#               B
I'm waiting for the heartaches to come
    C
got to keep on holding on for you

Christopher Massey 2002

Video Clip de Waiting For The Heartaches


ACORDES PARA GUITARRA

PIANO UKELELE


TOP 20: Las más tocadas de The Coral


Toca una Canción al Azar de The Coral

Acordes

Cerrar

23.29

x

181