Shadows Fall (Acordes)

The Coral

Full Álbum: The Coral (2002)
Subida por Alberto

Compartir


Cambiar Cifrado
Americano Latino

Cambiar Tonalidad
-1 +1
Imprimir FAQ
+A
-A

Texto

Desplazamiento

Transportador

Color de Fondo

Archivos

TONALIDAD, TAMAÑO, CIFRADO, SCROL.

Nos renovamos: Ahora puedes cambiar TODO haciendo clic en ICONO de la Guitarra () que aparece en la parte inferior de esta página.


LETRA CON ACORDES


A#m  6-8-8-6-6-6-|
D#m  6-6-8-8-7-6-|

Main riff:


e-----------------------------------------------------------------------|
B----------------10-11---14-13-11-10--11-10-----------------------------|
G----------10-11---------------------------------11-10------------------|
D--8-10-11--------------------------------------------------------------|
A-----------------------------------------------------------------------|
E-----------------------------------------------------------------------|

e---------------------------------------------|--------------------------------|
B----------------10-11---14-13-11-10--11-|-----------11-----------11-----------|
G----------10-11----------------------------|------10------------10------------|
D--8-10-11--------------------------------- |--8--------------10---------------|
A-------------------------------------------- |--------------------------------|
E---------------------------------------------|--------------------------------|

A#m                                D#m
Boarding calls, darkness drops....

Jazzy bit (tempo change)


E------------------------------------------------------------------------|
B------------------------------------------------------------------------|
G------------------------------------------------------------------------|
D---11--11--10h11p10---8-------------------------------------------------|
A------------------------------8-----------------------------------------|
-----------------------------------------------------------------------|

e-----------------------------------------------------------------------|
B-----------------------------------------------------------------------|
G-----------------------------------------------------------------------|
D----------------------------------8------------------------------------|
A------4-s-8------8--6------4s8------8---6------------------------------|
E--s6----------6---------s6---------------------------------------------|

Christopher Massey 2002

Video Clip de Shadows Fall


ACORDES PARA GUITARRA

PIANO UKELELE


TOP 20: Las más tocadas de The Coral


Toca una Canción al Azar de The Coral

Acordes

Cerrar

10.48

x

157