Bigmouth Strikes Again

The Smiths

Acordes

The Queen Is Dead (1986)
Subida por jmgl2019


Más Versiones
Ver. 2 Ver. 3 Ver. 4

Cambiar Cifrado
Americano Latino

Cambiar Tonalidad
-1 +1

Partir Pantalla Imprimir FAQ

+A
-A


Ver solo la LETRA
Notas:

Am Am7 C D9 D F/A G9/A
E|--0------0------3------5------0------1------0----|
B|--1------1------1------3------3------1------3----|
G|--2------0------0------0------0------2------4----|
D|--2------2------2------4------4------3------5----|
A|--0------0------3------5------5------0------0----|
E|-------------------------------------------------|

Guitarra I e II:

Intro: Am Am7 C D9 D
Am Am7 F/A G9/A

Verso:

Am Am7 C D9 D Am Am7
Sweetness, sweetness, I was only joking when
F/A G9/A Am Am7 C D9 D Am Am7 F/A G9/A
I said I'd like to smash every tooth in your head______________________
Am Am7 C D9 D Am Am7
Sweetness, sweetness I was only joking when
F/A G9/A Am C D9 D Am Am7
I said by rights you should be bludgeoned in your bed.__________

Ponte:

F/A G9/A Am Am7 C D9 D
And now I know how Joan of Arc felt, now I know how
Am Am7 F/A G9/A Am Am7
Joan of Arc felt,____ _____as the flames rose
C D9 D Am Am7 F/A G9/A
to her Roman nose and her Walkman started to melt_______

Solo:

Guitarra I: Am Am7 C D9 D Am Am7 F/A G9/A (4x)

Guitarra II:
E|---------------------------3--------------------------------4----|
B|---5-3-------------5-3--------5---5-3------3------------------5--|
G|--------5-5-4-5--------5-5-------------5-5---5-----5-5-5-5-------|
D|-----------------------------------------------------------------| (4x)
A|-----------------------------------------------------------------|
E|-----------------------------------------------------------------|

Refrão:

Am Am7 C D9
Bigmouth la da da da da
Am Am7 F/A G9/A
Bigmouth la da da da
Am Am7 C D9 D
Bigmouth strikes again and I've got no right to take my place with the
Am Am7 F/A G9/A
human race Oh, oh, oh oh oh
Am Am7 C D9
Bigmouth la da da da da
Am Am7 F/A G9/A
Bigmouth la da da da
Am Am7 C D9 D
Bigmouth strikes again and I've got no right to take my place with the
Am Am7 F/A G9/A
human race

Ponte:

F/A G9/A Am Am7 C D9 D
And now I know how Joan of Arc felt, now I know how
Am Am7 F/A G9/A Am Am7
Joan of Arc felt,____ _____as the flames rose
C D9 D Am Am7 F/A G9/A
to her Roman nose and her hearing aid started to melt_______

Outro:

E|--0------3--------5-----|
B|--0------3--------5-----|
G|--0---------------------|
D|------------------------|
A|------------------------|
E|------------------------|

Refrão:

Am Am7 C D9
Bigmouth la da da da da
Am Am7 F/A G9/A
Bigmouth la da da da
Am Am7 C D9 D
Bigmouth strikes again and I've got no right to take my place with the
Am Am7 F/A G9/A
human race Oh, oh, oh oh oh
Am Am7 C D9
Bigmouth la da da da da
Am Am7 F/A G9/A
Bigmouth la da da da
Am Am7 C D9 D
Bigmouth strikes again and I've got no right to take my place with the
Am Am7 F/A G9/A
human race Oh, oh, oh oh oh

Até o fade out

NUEVO FORO DE MÚSICA

¿Tienes alguna duda, consulta, pregunta, consejo o algo para compartir sobre esta canción?

¡Puedes abrir un hilo en el FORO para que la comunidad te ayude! Hacer una pregunta

ACORDES PARA GUITARRA

PIANO UKELELE
Am
Am7
C
D9
D
F/A
G9/A


Las más tocadas de The Smiths

Am
Am7
C
D9
D
F/A
G9/A