Nowhere Fast
The Smiths
Acordes

Subida por Yeya
Álbum: Meat Is Murder ( 1985)


Más Versiones

HERRAMIENTAS

Cambiar Cifrado
Americano Latino

Cambiar Tonalidad
-1 +1

Partir Pantalla Imprimir FAQ

Ver solo la LETRA

+A
-A
LETRA CON ACORDES

¿Tu Guitarra esta Afinada? PRUEBA NUESTRO NUEVO AFINADOR

intro/verse
F#|-----------------5-5-5-5-x-x-5-5-x-5-x-x-5-x-x-5-5-5-5-x-x-5-5-x-5-|
C#|-----------------5-5-5-5-x-x-5-5-x-5-x-x-5-x-x-5-5-5-5-x-x-5-5-x-5-|
A |-----------------5-5-5-5-x-x-5-5-x-5-x-x-5-x-x-5-5-5-5-x-x-5-5-x-5-|
E |-----------------7-7-7-7-x-x-7-7-x-7-x-x-7-x-x-7-7-7-7-x-x-7-7-x-7-|
B |-------3-------5---------------------------------------------------|
F#|-1-3/5---3-5/7-----------------------------------------------------|

F#|-x-x-5-x-----------------------x-x-8--8--10-12-12-12-10-8----|
C#|-x-x-5-x-6-6-6-6-x-x-6-6-x-8-6-x-x-10-10-10-10-10-10-10-10---|
A |-x-x-5-x-x-x-x-x-x-x-x-x-x-x-x-x-x-10-10-10-10-10-10-10-10---|
E |-x-x-7-x-7-7-7-7-x-x-7-7-x-7-7-x-x-10-10-10-10-10-10-10-10---|
B |-------x-5-5-5-5-x-x-5-5-x-5-5-x-x-8--8--8--8--8--8--8--8----|
F#|-------------------------------------------------------------|
                                     its a real pain in the arse
                                     getting this bit took me loads
                                     of practice
 and when a train comes round
F#|----------0-------------0-----------------0----------0--------0-----|
C#|---3--3-3-------3---3-3---------------1-----1----1-----1---1----1---|
A |-----0------------0-----------------2---2------2---2-----2---2------|
E |------------------------------------3---3------3---3-----3---3------|
B |--------------------------0---0-------------------------------------|
F#|--3-----------3-------------0---0-----------------------------------|

F#|------------------0------------------0---------0--------0----1~-0~---|
C#|------------3---3--3-------------1-----1---1-----1---1----1--1~-0~---|
A |--0-----0-----0-----0----------2---2-----2---2-----2---2-----2~-0~---|
E |----0--------------------------3---3-----3---3-----3---3-----3~-2~---|
B |----------------------0---0----------------------------------2~-2~---|
F#|------3---3-------------0---0----------------------------------------|

F#|---------------------------------------------------------------|
C#|---------------------------------------------------------------|
A |---------------------------------------------------------------|
E |---------------------------------------------------------------|
B |-------3-------5-----------------------------------------------|
F#|-1-3/5---3-5/7-------------------------------------------------|

solo
F#|-------0-0---0------0-0---0-------0-0---0---0---0------------|
C#|-----------0------------0-------------0----3--3---1p0h1p0----|
A |-2/4-4---------2/4-4--------2/4-4----------------------------|
E |-------------------------------------------------------------|
B |-------------------------------------------------------------|
F#|-------------------------------------------------------------|

F#|------0-0--0------0-0---0-----0-0---0-------------------------|
C#|-/5-5-----5---5-5-----5---5-5-----5---5/8-8-8-8-8-------------|
A |-/4-4-----4---4-4-----4---4-4-----4---4/7-7-7-7-7-------------|
E |--------------------------------------------------------------|
B |--------------------------------------------------------------|
F#|--------------------------------------------------------------|////////////////// ¿Te Animas? Sube una canción a este sitio. //////////////////

ACORDES PARA GUITARRA

PIANO UKELELE


COMENTARIOS

Aún no hay comentarios,

¡escribe el primero!

Escribe una pregunta, duda o comentario sobre esta canción, te responderemos a la brevedad.

Las canciones más tocadas de The Smiths

Toca una Canción al Azar de The Smiths

12.09


Nuestro servidor se demoró 0.01 segundos en generar esta página. Eso fue realmente muy rápido!