The headmaster ritual
The Smiths
Acordes

Subida por Anto
Álbum: Meat Is Murder ( 1985)


Más Versiones

Cambiar Cifrado
Americano Latino

Cambiar Tonalidad
-1 +1

Partir Pantalla Imprimir FAQ

+A
-A


Ver solo la LETRA
INTRO: C9   /Esus4/ E 
(2x)
e------------0-0----------|
b--3-3-3-3-3-0-0----------|
g--0-0-0-0-1-2-1----------|
d--2-2-2-2-2-2-2----------|
a--3-3-3-3-3-2-2----------|
e------------0-0----------|

e-------------0-0-0-0---0-0-0-0--0-0-0-0-0-0-0-----|
b--3-3-3-3-3--3-3-3-3---3-3-3-3--3-3-3-3-3-0-0-----|
g--0-0-0-0-0--2-2-2-2---2-2-2-2--0-0-0-0-1-2-1-----|
d--2-2-2-2-2--0-0-0-0---0-0-0-0--2-2-2-2-2-2-2-----|
a--3-3-3-3-3--x-x-x-x---x-x-x-x--0-0-0-0-0-2-2-----|
e-------------x-x-x-x-3^3-3-3-3--x-x-x-x-x-0-0-----|

e volta pra intro(C9 /Esus4 / E

(2x)
e---------------------------0----|
b--------------------------------|
g----------2-1----------2-1------|
d--------0------------0----------|
a------4----------2-4------------|
e--0-----------0-----------------|

Agora cai aqui

e-------------0-0-0--3-3-3-------|
b--3-3-3-3-3--3-3-3--3-3-3-------|
g--0-0-0-0-0--2-2-2--2-2-2-------|
d--2-2-2-2-2--0-0-0--0-0-0-------|
a--3-3-3-3-3--x-x-x--x-x-x-------|
e-------------x-x-x--x-x-x-------|

Volta pro riff de guitarra, e segue a musica
A B E c#m
Beligerant ghouls run Manchester schools
Amaj7 B E
spineless swines, cemented minds
B
Sir leads the troops, jealous of youth
Amaj7 E c#m
same old suit since 1962
B
he does the military two-step
Ab c#m7/9 B
down the nape of my neck i wanna go home
G#m Amaj7
i don't want to stay
F#/G Emaj7/9 Amaj7 Ab A
give up education as a bad mistake


Tablatura pra pra parte do "down the nape of my neck..."

(c#m7/9) (B) (G#m) (Amaj7) (F#/G)
e----------0------------2-0---------------0---------------------
b------4------4--------------4---------4----4------2--2-0---2---
g----4---4------4-----4--------4-----4---4----4----1--------3---
d--------------------------------------------------2--------4---
a--4----------------2------------------------------0--------x---
e----------------------------------4------------------------4---

(Emaj7/9) (Amaj7)...
e--2-------------------|
b--4-------------------|
g--4-------------------|
d--2-------------------|
a--x-------------------|
e--x-------------------|

Aí acaba.

ACORDES PARA GUITARRA

PIANO UKELELE


COMENTARIOS

Aún no hay comentarios,

¡escribe el primero!

Escribe una pregunta, duda o comentario sobre esta canción, te responderemos a la brevedad.

Las más tocadas de The Smiths

Toca una Canción al Azar de The Smiths