Handsome Devil
The Smiths
Acordes

Subida por hackemiko


Más Versiones
Ver. 2

Cambiar Cifrado
Americano Latino

Cambiar Tonalidad
-1 +1

Partir Pantalla Imprimir FAQ

+A
-A


Ver solo la LETRA
Intro: Bm G A Bm G

Riff: (Pode ser tocado junto com a introdução)

Morrissey começa a cantar aqui! <--+
|
E|--------------------------------------------
B|--------------------------------------------
G|------------2>0-2>0-------------2>0-2>0-----
D|----0>5-4-----------4---0>5-4-----------4---
A|--2-------2-----------2-------2-----------2-
E|--------------------------------------------

A música pode ser tocada toda usando os riffs abaixo também, mas é
melhor tocar os riffs que seguem apenas quando houver uma outra
guitarra fazendo a base:

Bm G A
E|----------------------|------------|------------
B|----------------------|------------|------------
G|--4---4---4-4---4---4-|--7---7---7-|--9---9---9-
D|--4-4---4---4-4---4---|--7-7---7---|--9-9---9---
A|----------------------|------------|------------
E|----------------------|------------|------------

A Bm G
All the streets are crammed with things eager to be held
A Bm G
I know what hands are for and I'd like to help myself
A Bm G A
You ask me the time but I sense something more
Bm G A Bm
... And I would like to give you what I think you're asking for...
G A
You handsome devil
Bm G A
Oohh, you handsome devil

REFRÃO:

(G A Bm) --> Aqui um segundo violão pode tocar o riff da intro
Let me get my hands
on your mammary glands
and let me get your head
on the conjugal bed
Bm G A Bm A
I say, I say, I say

Bm
I crack the whip
you skip
G
but you deserve it
A Bm G A
you deserve, you deserve, you deserve it

Bm
A boy in the bush is worth two in the hand
G A Bm
I think I can help you get through your exams
G A
All you're handsome devils

REFRÃO

Bm
I crack the whip
you skip
G
but you deserve it
A Bm
you deserve, you deserve, you deserve it

G -+
And when we're in your scholarly room |
A Bm | 2x
who will swallow whom? |
-+
G A
You handsome devil

REFRÃO

Bm G A
There's more to life than books, you know, but not much more, oh!
Bm
There's more to life than books, you know
G
but not much more
A
not much more

Bm G A
All you're handsome devils
Bm G A
All you're handsome devils.

Finalização:

G A Bm
E|------------
B|------------
G|------------
D|----0>5-4---
A|--2-------2-
E|------------

------------------------------------------------------
Cifrada por Tadeu Martins

Qualquer correção, entre em contato comigo pelo email.
------------------------------------------------------

ACORDES PARA GUITARRA

PIANO UKELELE


COMENTARIOS

Aún no hay comentarios,

¡escribe el primero!

Escribe una pregunta, duda o comentario sobre esta canción, te responderemos a la brevedad.

Las más tocadas de The Smiths

Toca una Canción al Azar de The Smiths