Heaven knows I'm miserable now
The Smiths
Acordes

Subida por Jerry80


Más Versiones
Ver. 2 Ver. 3
HERRAMIENTAS

Cambiar Cifrado
Americano Latino

Cambiar Tonalidad
-1 +1

Partir Pantalla Imprimir FAQ

+A
-A
LETRA CON ACORDES

¿Tu Guitarra esta Afinada? PRUEBA NUESTRO NUEVO AFINADOR

introdução: 
  
    F#maj7  Dmaj7  C#m    B 
f#----7-------3-----2-----0------------------------------------------ 
c#----9-------5-----3-----2------------------------------------------ 
 a----8-------4-----4-----2------------------------------------------ 
 e----9-------5-----4-----2------------------------------------------ 
 b------------------------0------------------------------------------ 
f#------------------------------------------------------------------- 

    B        C# 
f#------------------------------------------------------------------- 
c#--5-0------7-0----------------------------------------------------- 
 a--6-6------8-8----------------------------------------------------- 
 e--7-7------9-9----------------------------------------------------- 
 b------------------------------------------------------------------- 
f#------------------------------------------------------------------- 
I was.. 
   F#maj7                 D#m 
   happy in the haze of a drunken hour 
f#-7--------7--------7----9-------9---------------------------------- 
c#-9--------9-----------9-9-------9---------------------------------- 
 a-8--------8-------------9-------9---------------------------------- 
 e-9--------9-------------11------11--------------------------------- 
 b------------------------------------------------------------------- 
f#------------------------------------------------------------------- 
       Emaj7?/G#(baixo toca G#)         B   C# 
   but heaven knows I'm miserable now 
f#-----5----------------5---------------5----7----------------------- 
c#-----7----------------7---------------5----7----------------------- 
 a-----6----------------6---------------6----8----------------------- 
 e-----7----------------7---------------7----9----------------------- 
 b------------------------------------------------------------------- 
f#------------------------------------------------------------------- 
         F#maj7                       D#m 
   I was looking for a job and then I found a job 
f#-------7-----------7----------------9------------------------------ 
c#-------9-----------9----------------9------------------------------ 
 a-------8-----------8----------------9------------------------------ 
 e-------9-----------9----------------11----------------------------- 
 b------------------------------------------------------------------- 
f#------------------------------------------------------------------- 
       Emaj7?           B 
   and heaven knows I'm miserable now 
f#-----5----------------0-------------0-0-0-------------------------- 
c#-----7----------------2-------------0-0-0-------------------------- 
 a-----6----------------2-------------------------------------------- 
 e-----7----------------2-------------------------------------------- 
 b----------------------0-------------------------------------------- 
f#------------------------------------------------------------------- 
   F#maj7      B   C    F#maj7 
   In my life,          why do I give valuable time 
f#-7--7--------5---7-------------7----------------------------------- 
c#-9--9--------5---7----9--------9------------------6-6-6-6-6-3-...-- 
 a-8--8--------6---8----8--------8------------------6-6-6-6-6-4-...-- 
 e-9--9--------7---9----9-------------------------------------------- 
 b------------------------------------------------------------------- 
f#------------------------------------------------------------------- 
      D#m                                     
   to people who dnt care if I live or die 
f#----4------------------------9------------------------------------- 
c#----5------------------------9------------------------------------- 
 a----6------------------------9------------6--8-6-4----------------- 
 e----6------------------------11-----------7--9-7-6----------------- 
 b------------------------------------------------------------------- 
f#------------------------------------------------------------------- 
  
Este "solinho"
  
f#--3-4-2-0-4-2-0-4--7--14-14s15-16-11------------------------------- 
c#--4-4-3-2-4-3-2-4--9--14-------15-13------------------------------- 
 a----------------4--9--14-------16-12------------------------------- 
 e-------------------9----------------------------------------------- 
 b------------------------------------------------------------------- 
f#-------------------------------------------------------------------////////////////// ¿Te Animas? Sube una canción a este sitio. //////////////////

ACORDES PARA GUITARRA

PIANO UKELELE


COMENTARIOS

Aún no hay comentarios,

¡escribe el primero!

Escribe una pregunta, duda o comentario sobre esta canción, te responderemos a la brevedad.

Las canciones más tocadas de The Smiths

Toca una Canción al Azar de The Smiths

18.28


Nuestro servidor se demoró 0.01 segundos en generar esta página. Eso fue realmente muy rápido!