Last Night I Dreamt That Somebody Loved Me

The Smiths

Acordes

Strangeways, Here We Come (1987)
Subida por Blanca


Más Versiones
Ver. 2 Ver. 3

Cambiar Cifrado
Americano Latino

Cambiar Tonalidad
-1 +1

Partir Pantalla Imprimir FAQ

+A
-A


Ver solo la LETRA
	  hide this tabHide tab    Am                        F                         

E |----------------------------------------1--0--------|
B |-0--0--1-------3--1--------1--1---1-----1----3-1----|
G |-2-------2----------2------2----2---2---2--------2--|
D |-2---------2----------2----3----------3-3-----------|
A |-0-----------0----------0--x------------------------|
E |---------------------------1------------------------|

Fm Em E7
E |----------------------------------------------------|
B |-1--1---3-----4-3-1--------------0------------0-----|
G |-1----1---1---------1----------0---0--------1---2---|
D |-3----------3---------3------2-------2----0---------|
A |-x--------------------------------------------------|
E |-1-------------------------0------------0-----------|tab


Em C Cm Bm7 B7
Last night I dreamt ... that somebody loved me
Em C Cm Bm7 B7
No hope, no harm ... just another false alarm
Em C Cm Bm7 B7
Last night I felt real arms around me
Em C Cm Bm7
No hope, no harm ... just another false alarm

B7 Em C Cm Bm7
So, tell me how long ... before the last one?
B7 Em C Cm Bm7
And tell me how long ... before the right one?
B7 Em C Cm Bm7
This story is old ... I know, but it goes on
B7 Em C Cm Bm7 B7
This story is old ... I know, but it goes on

---Transcrito por Marcos Samerson ([email protected])---


NUEVO FORO DE MÚSICA

¿Tienes alguna duda, consulta, pregunta, consejo o algo para compartir sobre esta canción?

¡Puedes abrir un hilo en el FORO para que la comunidad te ayude! Hacer una pregunta

ACORDES PARA GUITARRA

PIANO UKELELE


Las más tocadas de The Smiths