Pretty Girls Make Graves
The Smiths
Acordes

Subida por Edgardo
Álbum: The Smiths ( 1984)


Más Versiones
Ver. 2 Ver. 3

Cambiar Cifrado
Americano Latino

Cambiar Tonalidad
-1 +1

Partir Pantalla Imprimir FAQ

+A
-A

Verse Verse End (Is simply the same as first Verse part)
G |---4-------7---6-|| |---4---4---4---6-| |---4-------7---6-|
D |-------4---------|| |-----------------| |-------4---------|
A |-2-------5---0---|| |-2---2-------0---| |-2-------5---0---|
E |-----2-----------||3x |---------3-------| |-----2-----------|

Aah Part
G |---------4-----------------------|---------4-----------------------|
D |-----6-------4-------------------|-----6-------4-------------------|
A |-4-----4-------2-0-----------2---|-4-----4-------2-0---------------|
E |---------------------------------|-----------------------------4---|

G |---------------------------------|
D |---------------------------------|
A |---------------------------------| Build up
E |-2-2-2-2-2-2-2-2-2-2-2-2-2-2-2---|

ACORDES PARA GUITARRA

PIANO UKELELE


COMENTARIOS

Aún no hay comentarios,

¡escribe el primero!

Escribe una pregunta, duda o comentario sobre esta canción, te responderemos a la brevedad.

Las más tocadas de The Smiths

Toca una Canción al Azar de The Smiths