Ballot Or The Bullet
Van Halen
Acordes

Subida por Rafaelelias
Álbum: Van Halen III ( 1998)


Más Versiones
Ver. 2 Ver. 3 Ver. 4 Ver. 5 Ver. 6

Cambiar Cifrado
Americano Latino

Cambiar Tonalidad
-1 +1

Partir Pantalla Imprimir FAQ

+A
-A


Ver solo la LETRA


Guitar 1



freely
H Q S S S S E S S E. S S S S S S S S S
E ||------------------0h-----3p-0-|--/5--8-3-5-----------------0h-3p-0-|
C#||------------------------------|--------------6-3h-6----------------|
A ||------------------------------|---------------------3p-0-----------|
E ||------------------------------|------------------------------------|
A ||------------------------------|------------------------------------|
A ||------------------------------|------------------------------------|


E S S S T T S S H S S S S E S S E. S S S S S S S S S
--/5--8-3-5-3p-0----------------0h-3p-0-|--/5--8-3-5-----------------0h-3p-0-|
----------------------------------------|--------------6-3h-6----------------|
---------------------0------------------|---------------------3p-0-----------|
---------------------x------------------|------------------------------------|
---------------------5------------------|------------------------------------|
-----------------3-0-5------------------|------------------------------------|


E S S S T T S S H S S S S E S S S S S S S S S S S S S S
--/5--8-3-5-3p-0----------------0h-3p-0-|--/5--8-3-5-3-0-3-----------------|
----------------------------------------|----------------------------------|
---------------------0------------------|------------------3-0-0-3---0-----|
---------------------x------------------|------------------3-0-----3-------|
-----------------5-4-3------------------|----------------------------------|
-----------------5-4-3------------------|------------------------------3-0-|


Double time
S E. E. S S S E Q E E Q Q E E
--------------------------|---------------------------------|
------------------3--L----|---------------------------------|
------------------3--L----|--------------8--8----7-------8--|
--3-5---L---5-L-4-3--L----|--x-----------8--8----7-------8--|
--3-5---L---5-L-4-3--L----|--x-----------8--8----7-------8--|
--3-5---L---5-L-4-3--L----|---------------------------------|


E E E E Q Q E Q. Q E E E E E E Q E E
-------------------------|-----------------------|---------------------------|
-------------------------|-----------------------|---------------------------|
-----7-----10--8----8----|--L--7------L-------5--|-----3-----6S--5----3--3S--|
-----7-----10--8----8----|--L--7------L-------5--|-----3-----6S--5----3--3S--|
-----7-----10--8----8----|--L--7------L-------5--|-----3-----6S--5----3--3S--|
-------------------------|-----------------------|---------------------------|


E E Q Q E E E E E E Q Q E E H.
------------------------|-------------------------|---------------------|
------------------------|-------------------------|---------------------|
--8--8--8----7-------8--|-----7-----10--8----8----|--L--7--L------------|
--8--8--8----7-------8--|-----7-----10--8----8----|--L--7--L------------|
--8--8--8----7-------8--|-----7-----10--8----8----|--L--7--L------------|
------------------------|-------------------------|---------------------|


a tempo
E E E E Q Q E S S E S S S S S S E S S
-------------------------|--------------------------------------|
-------------------------|--------------------------------------|
-------------------------|--------------3----5---3---6p-5--3----|
-------------------------|----------x-x-3--x-5---3---6p-5--3----|
-------------------------|----------x-x-3--x-5---3---6p-5--3p-0-|
-----3--5--3--5b----3----|--0-----------------------------------|


1
E S S S S S S S S E Q E S S E S S S S S S E S S
--------------------------------|---------------------------------|
--------------------------------|---------------------------------|
--------------------------------|---------3----5---3---6p-5--3----|
-----x-x------------------------|-----x-x-3--x-5---3---6p-5--3----|
-----x-x-3p-0-----5p-3p-0--L----|-----x-x-3--x-5---3---6p-5--3p-0-|
--0-----------0-0---------------|--0------------------------------|


2
E S S S S E H Q. S S S T T S S Q
--------------------------|---------------------------------|
--------------------------|---------------------------------|
--------------0--L--------|--L--------/5-5p-3p-0---0--------|
-----x-x------5--L--------|--L-------------------3---5----|
-----x-x-3p-0-5--L--------|--L------------------------------|
--0-----------------------|---------------------------------|


a tempo
1
E S S E S S S S S S E S S E S S S S S S S S E Q
--------------------------------------|--------------------------------|
--------------------------------------|--------------------------------|
--------------3----5---3---6p-5--3----|--------------------------------|
----------x-x-3--x-5---3---6p-5--3----|-----x-x------------------------|
----------x-x-3--x-5---3---6p-5--3p-0-|-----x-x-3p-0-----5p-3p-0--L----|
--0-----------------------------------|--0-----------0-0---------------|


/
E S S E S S S S S S E S S E S S S E S S T T S S Q
---------------------------------|-------------------------------------|
---------------------------------|-------------------------------------|
---------3----5---3---6p-5--3----|---------------5p-L-3p-0------3----|
-----x-x-3--x-5---3---6p-5--3----|-----x-x-----------------3p-0--------|
-----x-x-3--x-5---3---6p-5--3p-0-|-----x-x-3p-0------------------------|
--0------------------------------|--0----------------------------------|


E S S E S S S S S S E S S E S S S E S S T T S S E. S
---------------------------------|---------------------------------------|
---------------------------------|---------------------------------------|
---------3----5---3---6p-5--3----|---------------------------------------|
-----x-x-3--x-5---3---6p-5--3----|-----x-x-------5p-L-3p-0---------------|
-----x-x-3--x-5---3---6p-5--3p-0-|-----x-x-3p-0------------3p-0-2brb---0-|
--0------------------------------|--0------------------------------------|


E S S E S S S S S S E S S E S S S S E S S S S S S T T S
---------------------------------|-------------------5-5-5-5-5-5p-3p-0-|
---------------------------------|-------------------------------------|
---------3----5---3---6p-5--3----|-------------------------------------|
-----x-x-3--x-5---3---6p-5--3----|-----x-x-----------------------------|
-----x-x-3--x-5---3---6p-5--3p-0-|-----x-x-3h-4-0----------------------|
--0------------------------------|--0----------------------------------|


double time
Q. E H Q. E S S E E E Q H E E
-----------------3--------|--L------3--5p-3p-0--------|-------3--------L--3--|
-----------------3--------|--L------------------------|-------3--------L-----|
-----------------0--------|--L------------------3--0--|-------0--------L-----|
-----------------1--------|--L------------------------|----------------------|
--------------------------|---------------------------|----------------------|
--8-----------------------|---------------------------|--3-------------------|


PM
E E E E E E E E E E Q E E E E
--5--5--5--3--8--8--8S--10--|------------------13---------|
--------3-----6--6--6S---8--|------------------13---------|
----------------------------|---------10----L-------------|
----------------------------|---------10----L-------------|
----------------------------|-------------------------10--|
----------------------------|--10-------------------------|


E E E E Q E E Q Q E E E E
-------------------------------|------------------------|
-------------------------------|------------------------|
--12p--10------10--L-----------|-------5----5--5--5--5--|
--12p--10------10--L-----------|-------5----5--5--5--5--|
-----------10------------------|-------5----5--5--5--5--|
------------------------5h--8--|--5---------------------|


a tempo
E E E E Q Q E S S E S S S S S S E S S
--------------------------|--------------------------------------|
--------------------------|--------------------------------------|
--------------------------|--------------3----5---3---6p-5--3----|
--------------------------|----------x-x-3--x-5---3---6p-5--3----|
--------------------------|----------x-x-3--x-5---3---6p-5--3p-0-|
-----3--5p--3--5b----3----|--0-----------------------------------|


1
E S S S S S S S S E Q E S S E S S S S S S E S S
--------------------------------|---------------------------------|
--------------------------------|---------------------------------|
--------------------------------|---------3----5---3---6p-5--3----|
-----x-x------------------------|-----x-x-3--x-5---3---6p-5--3----|
-----x-x-3p-0-----5p-3p-0--L----|-----x-x-3--x-5---3---6p-5--3p-0-|
--0-----------0-0---------------|--0------------------------------|


/
E S S S E S S T T S S Q E S S E S S S S S S E S S
-------------------------------------|---------------------------------|
-------------------------------------|---------------------------------|
---------------5p-L-3p-0------3----|---------3----5---3---6p-5--3----|
-----x-x-----------------3p-0--------|-----x-x-3--x-5---3---6p-5--3----|
-----x-x-3p-0------------------------|-----x-x-3--x-5---3---6p-5--3p-0-|
--0----------------------------------|--0------------------------------|


E S S S E S S T T S S E. S E S S E S S S S S S E S S
---------------------------------------|---------------------------------|
---------------------------------------|---------------------------------|
---------------------------------------|---------3----5---3---6p-5--3----|
-----x-x-------5p-L-3p-0---------------|-----x-x-3--x-5---3---6p-5--3----|
-----x-x-3p-0------------3p-0-2brb---0-|-----x-x-3--x-5---3---6p-5--3p-0-|
--0------------------------------------|--0------------------------------|


double time
E S S S S E S S S S S S T T S Q. E H
-------------------5-5-5-5-5-5p-3p-0-|-----------------3--------|
-------------------------------------|-----------------3--------|
-------------------------------------|-----------------0--------|
-----x-x-----------------------------|-----------------1--------|
-----x-x-3h-4-0----------------------|--------------------------|
--0----------------------------------|--8-----------------------|


Q. E S S E E E Q H E E E E E E E E E E
--L------3--5p-3p-0--------|-------3--------L--3--|--5--5--5--3--8--8--8S--10--|
--L------------------------|-------3--------L-----|--------3-----6--6--6S---8--|
--L------------------3--0--|-------0--------L-----|----------------------------|
--L------------------------|----------------------|----------------------------|
---------------------------|----------------------|----------------------------|
---------------------------|--3-------------------|----------------------------|


PM
E E Q E E E E E E E E Q E E
------------------13---------|-------------------------------|
------------------13---------|-------------------------------|
---------10----L-------------|--12p--10------10--L-----------|
---------10----L-------------|--12p--10------10--L-----------|
-------------------------10--|-----------10------------------|
--10-------------------------|------------------------5h--8--|


Q Q E E E E E E E E Q E E Q E E E E Q
------------------------|--------------------------|-------------------------|
------------------------|--------------------------|-------------------------|
-------5----5--5--5--5--|-----3-----6p--5----3-----|--7----7-----------------|
-------5----5--5--5--5--|-----3-----6p--5----3-----|--7----7--------8p--7----|
-------5----5--5--5--5--|-----3-----6p--5----3-----|--7----7-----------------|
--5---------------------|--------------------------|-------------------------|


Q E E Q. E Q Q E E Q Q E E H
-------------------------|------------------------|-----------------------|
-------------------------|------------------------|-----------------------|
--8----x--10p--8---------|-------3----L-----------|-----------5--L--------|
--8----x--10p--8---------|-------3----L--5p--3----|--7p----6--5--L--------|
--8----x-----------------|-------3----L-----------|-----------5--L--------|
-------------------------|--3---------------------|-----------------------|


Q E E E E Q Q E E Q. E Q Q E E Q
-------------------------|-------------------------|------------------------|
-------------------------|-------------------------|------------------------|
--7----7-----------------|--8----x--10p--8---------|-------1----L-----------|
--7----7--------8p--7----|--8----x--10p--8---------|-------1----L--3p--1----|
--7----7-----------------|--8----x-----------------|--1----1----L-----------|
-------------------------|-------------------------|------------------------|


Q E E E E E E Q Q E E Q Q E E E E E E
--------------------------|------------------------|-------------------------|
--------------------------|------------------------|-------------------------|
-----------------3--3--3--|--6----6----L-----------|--8----x--8--L--x--x--x--|
--5p----4--------3--3--3--|--6----6----L--8p--6----|--8----x--8--L--x--x--x--|
-----------3--L--3--3--3--|--6----6----L-----------|--8----x--8--L--x--x--x--|
-----------3--L-----------|------------------------|-------------------------|


E E E E E E Q Q E E Q. E
--------------------------|-------------------------|-----|-----|-----|-----|
--------------------------|-------------------------|-----|-----|-----|-----|
--x--x--6-----x--8p--6----|--8----8--8--10------12--|-----|-----|-----|-----|
--x--x--6-----x--8p--6----|--8----8--8--10------12--|-----|-----|-----|-----|
--x--x--6-----x-----------|--8----8--8--10------12--|-----|-----|-----|-----|
--------------------------|-------------------------|-----|-----|-----|-----|


a tempo
< PH
Q E. S S T T S S Q E S S E S S S S S S E S S
----------------------------------|--------------------------------------|
----------------------------------|--------------------------------------|
--0----L---5p-L-3p-0------3~----|--------------3----5---3---6p-5--3----|
--0----L-------------3p-0---------|----------x-x-3--x-5---3---6p-5--3----|
----------------------------------|----------x-x-3--x-5---3---6p-5--3p-0-|
----------------------------------|--0-----------------------------------|


1
E S S S S S S S S E Q E S S E S S S S S S E S S
--------------------------------|---------------------------------|
--------------------------------|---------------------------------|
--------------------------------|---------3----5---3---6p-5--3----|
-----x-x------------------------|-----x-x-3--x-5---3---6p-5--3----|
-----x-x-3p-0-----5p-3p-0--L----|-----x-x-3--x-5---3---6p-5--3p-0-|
--0-----------0-0---------------|--0------------------------------|


/
E S S S E S S T T S S Q E S S E S S S S S S E S S
-------------------------------------|---------------------------------|
-------------------------------------|---------------------------------|
---------------5p-L-3p-0------3----|---------3----5---3---6p-5--3----|
-----x-x-----------------3p-0--------|-----x-x-3--x-5---3---6p-5--3----|
-----x-x-3p-0------------------------|-----x-x-3--x-5---3---6p-5--3p-0-|
--0----------------------------------|--0------------------------------|


E S S S E S S T T S S E. S E S S E S S S S S S E S S
---------------------------------------|---------------------------------|
---------------------------------------|---------------------------------|
---------------------------------------|---------3----5---3---6p-5--3----|
-----x-x-------5p-L-3p-0---------------|-----x-x-3--x-5---3---6p-5--3----|
-----x-x-3p-0------------3p-0-2brb---0-|-----x-x-3--x-5---3---6p-5--3p-0-|
--0------------------------------------|--0------------------------------|


double time
E S S S S E S S S S S S T T S Q. E H
-------------------5-5-5-5-5-5p-3p-0-|-----------------3--------|
-------------------------------------|-----------------3--------|
-------------------------------------|-----------------0--------|
-----x-x-----------------------------|-----------------1--------|
-----x-x-3h-4-0----------------------|--------------------------|
--0----------------------------------|--8-----------------------|


Q. E S S E E E Q H E E E E E E E E E E
--L------3--5p-3p-0--------|-------3--------L--3--|--5--5--5--3--8--8--8S--10--|
--L------------------------|-------3--------L-----|--------3-----6--6--6S---8--|
--L------------------3--0--|-------0--------L-----|----------------------------|
--L------------------------|----------------------|----------------------------|
---------------------------|----------------------|----------------------------|
---------------------------|--3-------------------|----------------------------|


PM
E E Q E E E E E E E E Q E E
------------------13---------|-------------------------------|
------------------13---------|-------------------------------|
---------10----L-------------|--12p--10------10--L-----------|
---------10----L-------------|--12p--10------10--L-----------|
-------------------------10--|-----------10------------------|
--10-------------------------|------------------------5h--8--|


Q Q E E E E E E E E Q E E Q E E E E Q
------------------------|--------------------------|-------------------------|
------------------------|--------------------------|-------------------------|
-------5----5--5--5--5--|-----3-----6p--5----3-----|--7----7-----------------|
-------5----5--5--5--5--|-----3-----6p--5----3-----|--7----7--------8p--7----|
-------5----5--5--5--5--|-----3-----6p--5----3-----|--7----7-----------------|
--5---------------------|--------------------------|-------------------------|


Q E E Q. E Q Q E E Q Q E E H
-------------------------|------------------------|-----------------------|
-------------------------|------------------------|-----------------------|
--8----x--10p--8---------|-------3----L-----------|-----------5--L--------|
--8----x--10p--8---------|-------3----L--5p--3----|--7p----6--5--L--------|
--8----x-----------------|-------3----L-----------|-----------5--L--------|
-------------------------|--3---------------------|-----------------------|


Q E E E E Q Q E E Q. E Q Q E E Q
-------------------------|-------------------------|------------------------|
-------------------------|-------------------------|------------------------|
--7----7-----------------|--8----x--10p--8---------|-------1----L-----------|
--7----7--------8p--7----|--8----x--10p--8---------|-------1----L--3p--1----|
--7----7-----------------|--8----x-----------------|--1----1----L-----------|
-------------------------|-------------------------|------------------------|


Q E E E E E E Q Q E E Q Q E E E E E E
--------------------------|------------------------|-------------------------|
--------------------------|------------------------|-------------------------|
-----------------3--3--3--|--6----6----L-----------|--8----x--8--L--x--x--x--|
--5p----4--------3--3--3--|--6----6----L--8p--6----|--8----x--8--L--x--x--x--|
-----------3--L--3--3--3--|--6----6----L-----------|--8----x--8--L--x--x--x--|
-----------3--L-----------|------------------------|-------------------------|


E E E E E E Q Q E E Q. E
--------------------------|-------------------------|-----|-----|-----|
--------------------------|-------------------------|-----|-----|-----|
--x--x--6-----x--8p--6----|--8----8--8--10------12--|-----|-----|-----|
--x--x--6-----x--8p--6----|--8----8--8--10------12--|-----|-----|-----|
--x--x--6-----x-----------|--8----8--8--10------12--|-----|-----|-----|
--------------------------|-------------------------|-----|-----|-----|


<
H H Q S S S S E S S Q S S S S S S S S
--------------------|---------0h-3p-0-|--/5--8-3-5~--------------0h-3p-0-|
--------------------|-----------------|----------------------------------|
-----------0--------|--L----L---------|------------------0-0-0-----------|
-----------0--------|--L----L---------|------------------0-0-0-----------|
--------------------|-----------------|------------------0-0-0-----------|
--------------------|-----------------|------------------0-0-0-----------|


PM PM PM
S S S S Q S S S S S S S S E S S Q S S S S S S S S
-----------------------------0h-3p-0-|--/5--8-3-5~--------------0h-3p-0-|
-----3-----6~-L----------------------|----------------------------------|
--5-----3--5~-L----------------------|------------------0-0-0-----------|
-------------------------------------|------------------0-0-0-----------|
---------------------5-4-3-----------|------------------0-0-0-----------|
---------------------5-4-3-----------|------------------0-0-0-----------|


PM PM PM
S S S S Q S S S S S S S S E S S S S S S S S S S S S S S
-----------------------------0h-3p-0-|--/5--8-3-5-----------------------|
-----3-----6~-L----------------------|------------6-3-6---3-------------|
--5-----3--5~-L----------------------|------------------3-----3---------|
-------------------------------------|----------------------5---3-5-----|
---------------------5-4-3-----------|----------------------------------|
---------------------5-4-3-----------|------------------------------3-0-|


S E. E. S S S E Q
--------------------------|-------|-------|-------|-------|-------|-------|
--------------------------|-------|-------|-------|-------|-------|-------|
--------------------------|-------|-------|-------|-------|-------|-------|
--3-5---L---5-L-4-3--L----|-------|-------|-------|-------|-------|-------|
--3-5---L---5-L-4-3--L----|-------|-------|-------|-------|-------|-------|
--3-5---L---5-L-4-3--L----|-------|-------|-------|-------|-------|-------|

-------|-------|-------|-------|-------|-------|-------|-------|-------|-------|
-------|-------|-------|-------|-------|-------|-------|-------|-------|-------|
-------|-------|-------|-------|-------|-------|-------|-------|-------|-------|
-------|-------|-------|-------|-------|-------|-------|-------|-------|-------|
-------|-------|-------|-------|-------|-------|-------|-------|-------|-------|
-------|-------|-------|-------|-------|-------|-------|-------|-------|-------|

-------|-------|-------|-------|-------|-------|-------|
-------|-------|-------|-------|-------|-------|-------|
-------|-------|-------|-------|-------|-------|-------|
-------|-------|-------|-------|-------|-------|-------|
-------|-------|-------|-------|-------|-------|-------|
-------|-------|-------|-------|-------|-------|-------|


H E E E E E S S Q S S S S S S S S
--------------0h--3p--0--|--/5--8-3-5~--------------0h-3p-0-|
-------------------------|----------------------------------|
-------------------------|------------------0-0-0-----------|
-------------------------|------------------0-0-0-----------|
-------------------------|------------------0-0-0-----------|
-------------------------|------------------0-0-0-----------|


PM PM PM
S S S S Q S S S S S S S S E S S Q S S S S S S S S
-----------------------------0h-3p-0-|--/5--8-3-5~--------------0h-3p-0-|
-----3-----6~-L----------------------|----------------------------------|
--5-----3--5~-L----------------------|------------------0-0-0-----------|
-------------------------------------|------------------0-0-0-----------|
---------------------5-4-3-----------|------------------0-0-0-----------|
---------------------5-4-3-----------|------------------0-0-0-----------|


PM PM PM PM PM PM PM PM
S S S S Q S S S S S S S S E S S S S S S S S S S S S S S
-----------------------------0h-3p-0-|--/5--8-3-5-----------------------------|
-----3-----6~-L----------------------|------------6-3-6----3------------------|
--5-----3--5~-L----------------------|------------------3--------3------------|
-------------------------------------|------------------------5-----3-------0-|
---------------------5-4-3-----------|----------------------------------------|
---------------------5-4-3-----------|---------------------------------0h-3---|


S S S S S S S S S T T S S S T T S S
---------------------------------------------|
--------------3------------------------------|
-------0--------0S-5p-L-3p-0-----------------|
---------0h-3----------------3-5p-L-3p-0-----|
--0h-3-----------------------------------3-0-|
---------------------------------------------|


double time
E E Q E E Q Q E E H
----------------------------------|----------11-----------|
----------------------------------|----------11-----------|
--x-----------x--7----x-----------|--8-----------8--------|
--x-----------x--7----x--8p--7----|--8-----------8--------|
--x-----------x--7----x-----------|--8-----------8--------|
----------------------------------|-----------------------|


Q Q E E Q Q E E H Q Q E E Q
------------------------|-----------------------|------------------------|
------------------------|-----------------------|------------------------|
-------3----L-----------|-----------5--L--------|--7----7----x-----------|
-------3----L--5p--3----|--7p----6--5--L--------|--7----7----x--8p--7----|
-------3----L-----------|-----------5--L--------|--7----7----x-----------|
--3---------------------|-----------------------|------------------------|


Q E E H Q Q E E Q Q E E H
----------11-----------|------------------------|----------------------|
----------11-----------|------------------------|----------------------|
--8-----------8--------|-------1----L-----------|----------3--L--------|
--8-----------8--------|-------1----L--3p--1----|--5----4--3--L--------|
--8-----------8--------|-------1----L-----------|----------3--L--------|
-----------------------|--1---------------------|----------------------|


Q Q E E Q Q E E Q. E
------------------------|----------11-------------|
------------------------|----------11-------------|
--6----6----x-----------|--8----x------8------8S--|
--6----6----x--8p--6----|--8----x------8------8S--|
--6----6----x-----------|--8----x------8------8S--|
------------------------|-------------------------|


NH NH /
E E E E Q Q Q Q H
------------------------------|------------------------------|
------------------------------|------------------12--------|
--10--10--10--10--11----12----|----------12----------------|
--10--10--10--10--11----12----|--12------------------------|
--10--10--10--10--11----12----|------------------------------|
------------------------------|------------------------------|


E E Q E E Q Q E E H Q Q E E Q
-------------------------|----------11-----------|------------------------|
-------------------------|----------11-----------|------------------------|
--x--x--7----x-----------|--8-----------8--------|-------3----L-----------|
--x--x--7----x--8p--7----|--8-----------8--------|-------3----L--5p--3----|
--x--x--7----x-----------|--8-----------8--------|-------3----L-----------|
-------------------------|-----------------------|--3---------------------|


Q E E H Q Q E E Q Q E E H
-----------------------|---------------11-------|-----------13------------|
-----------------------|---------------11-------|-----------13------------|
-----------5--L--------|--8----8----x------8----|--10----x------10--------|
--7p----6--5--L--------|--8----8----x------8----|--10----x------10--------|
-----------5--L--------|--8----8----x------8----|--10----x------10--------|
-----------------------|------------------------|-------------------------|


Q Q E E Q Q E E H Q Q E E Q
------------------------|----------------------|------------------------|
------------------------|----------------------|------------------------|
-------1----L-----------|----------3--L--------|--6----6----x-----------|
-------1----L--3p--1----|--5----4--3--L--------|--6----6----x--8p--6----|
-------1----L-----------|----------3--L--------|--6----6----x-----------|
--1---------------------|----------------------|------------------------|


Q E E E E E E Q Q E Q. Q E E E E E E
-------------------------|---------------9------|----------11------11------11--|
-------------------------|---------------9------|----------11------11------11--|
--8----x--x--x--x--x--x--|--x----6----L---------|--8----x----------------------|
--8----x--x--x--x--x--x--|--x----6----L---------|--8----x------10------10------|
--8----x--x--x--x--x--x--|--x----6----L---------|--8----x----------------------|
-------------------------|----------------------|------------------------------|


Q Q E E Q E E E E Q E E Q Q E E Q
------------------------|-----------11-------11--11--|------------------------|
------------------------|-----------11-------11--11--|------------------------|
--x----6----x-----------|--8--8--8------x------------|--x----6----x-----------|
--x----6----x--8p--6----|--8--8--8------x------------|--x----6----x--8p--6----|
--x----6----x-----------|--8--8--8------x------------|--x----6----x-----------|
------------------------|----------------------------|------------------------|


E E E E Q E E Q Q E E Q
-----------11-------11--11--|------------------------|
-----------11-------11--11--|------------------------|
--8--8--8------x------------|--x----6----x-----------|
--8--8--8------x------------|--x----6----x--8p--6----|
--8--8--8------x------------|--x----6----x-----------|
----------------------------|------------------------|


E E E E Q E E Q Q E E Q Q E E Q. E
-----------11-------11--11--|------------------------|-------------------------|
-----------11-------11--11--|------------------------|-------------------------|
--8--8--8------x------------|--x----6----x-----------|--8----8--8--10------12--|
--8--8--8------x------------|--x----6----x--8p--6----|--8----8--8--10------12--|
--8--8--8------x------------|--x----6----x-----------|--8----8--8--10------12--|
----------------------------|------------------------|-------------------------|

-----|-----|-----|-----|-----|-----|-----|-----|-----|-----|-----|-----|-----|
-----|-----|-----|-----|-----|-----|-----|-----|-----|-----|-----|-----|-----|
-----|-----|-----|-----|-----|-----|-----|-----|-----|-----|-----|-----|-----|
-----|-----|-----|-----|-----|-----|-----|-----|-----|-----|-----|-----|-----|
-----|-----|-----|-----|-----|-----|-----|-----|-----|-----|-----|-----|-----|
-----|-----|-----|-----|-----|-----|-----|-----|-----|-----|-----|-----|-----|

-----|-----|-----|-----|-----||
-----|-----|-----|-----|-----||
-----|-----|-----|-----|-----||
-----|-----|-----|-----|-----||
-----|-----|-----|-----|-----||
-----|-----|-----|-----|-----||




Duration Legend
---------------
W - whole
H - half
Q - quarter
E - 8th
S - 16th
T - 32nd
X - 64th
. - note dotted


Tablature Legend
----------------
L - tied note
x - dead note
(n) - ghost note
> - accentuded note
NH - natural harmonic
AH - artificial harmonic
TH - tapped harmonic
SH - semi harmonic
PH - pitch harmonic
h - hammer on
p - pull off
b - bend
br - bendRelease
pb - preBend
pbr - preBendRelease
brb - bendReleaseBend

/ - tremolo bar dip

- tremolo bar dive
-/n - tremolo bar Release up
/n - tremolo bar inverted dip
/n - tremolo bar return
-
- tremolo bar Release down
S - shift slide
s - legato slide
/ - slide into from below or out of upwards
- slide into from above or out of downwards
~ - vibrato
W - wide vibrato
tr - trill
TP - tremolo picking
T - tapping
S - slap
P - pop
< - fade in
^ - brush up
v - brush down

ACORDES PARA GUITARRA

PIANO UKELELE


COMENTARIOS

Aún no hay comentarios,

¡escribe el primero!

Escribe una pregunta, duda o comentario sobre esta canción, te responderemos a la brevedad.

Las más tocadas de Van Halen

Toca una Canción al Azar de Van Halen