Not Enough
Van Halen
Acordes

Subida por miguelelias
Álbum: Balance ( 1995)


Más Versiones
Ver. 2 Ver. 3 Ver. 4 Ver. 5 Ver. 6

Cambiar Cifrado
Americano Latino

Cambiar Tonalidad
-1 +1

Partir Pantalla Imprimir FAQ

+A
-A


Ver solo la LETRA
                 C      Em    F           Dm     Am     Bb
e|-------0------0-----1---------0-1----1--0---------------------|
B|-----0-1----1-0-----1-----1-3---3--1----1-1---3---------------|
G|-0-2---0--0---0-0---2-----------2-------2-----3---------------|
D|-------2------2-----3-----------0-------2-----3---------------|
A|-------3--------------------------------0-----1---------------|
E|--------------------------------------------------------------|

Bb F C Dm Am Bb F C
e|-------------------------------0-1----1--0-------3------------|
B|-------3-------------1-----1-3---3--1----1-1---3------1---1---|
G|---0-2-3-----3-2-----0-----------2-------2-----3----3-2---0---|
D|-3-----3---3---3-3---2-----------0-------2-----3--3---3-3-2---|
A|-------1-------3-----3-------------------0-----1------3---3---|
E|---------------1----------------------------------------------|

F C G F
e|----------1---| |-----------1---|
B|--5-6-3-1-1---| |---5-6-3---1---|
G|--5-7-4-2-2---| |---5---4-5-2---|
D|----------3---| |---5---5---3---|
A|----------3---| |---3---5---3---|
E|----------1---| |-------3---1---|

F G C C/G F
To love somebody naturally
F G C C/G F
To love somebody faithfully
F G C C/G F
To love somebody equally
Em Am Em F G C
Is not enough, is not enough, it's not enough

F G C C/G F
To love somebody secretly [and never touch]
F G C C/G F
To love somebody honestly [and always trust]
F G C Em Am
To love somebody tenderly, the tender touch
Em Dm G Am
It's not enough, it's not enough

Am Bb
e|--0-------------1----|
B|--1-------------3----|
G|--2-------------3----|
D|--2-------------3----|
A|--0--0-3-2-0----1----|
E|-------------0-------|

:Bb C F
:Love hurts you sometime
:Bb C F
:Refrão :It's not so easy to find, no
:Bb C F
:Searchin' everywhere
: Am Bb C Dsus2
:You turn and swear, it's always been there

F G C C/G F
To love somebody foolishly [can happen once]
F G C C/G F
To love somebody hopelessly [it hurts so much]
F G C C/G F
To love somebody equally
Em Am Em Dm G Am
Is not enough, is not enough, it's not enough

:Bb C F
:Love takes a little time
:Bb C F
:Refrão :It's not so easy to find, no
:Bb C F Am Bb
:Searchin' everywhere, you turn and swear
: C Dm Em F G A5 Bb A
:She's always been there standin' there

:Dm Em F G A-Bb A
:Solo :Dm Em F G A-Bb A
:Dm Em F G Asus4 A

C Em F
And if it don't come easily
Dm Am Bb
One thing you must believe
Bb F C
You can always have trust in me
Dm Am Bb
Because my heart will always be
F C
Yours honestly

: Bb C F
:Yeah, love hurts you sometimes
:Bb C F
:Refrão :Not so easy to find, no
:Bb C F Am Bb
:Searchin' everywhere, then turn and swear
: C F C Bb
:It's always been there, standin' there

:Bb C F
:Love hurts you sometimes
:Bb C F
:Refrão :Not yours, it's not mine, no
:Bb C F
:Love's only to share
:Am Bb C F Bb
:Turn and swear, it's everywhere, standin' there
: C Bb C F
:'Cause it's always been there

ACORDES PARA GUITARRA

PIANO UKELELE
C
Em
F
Dm
Am
Bb
G
C/G
Dsus2
A5
A
Asus4


COMENTARIOS

Aún no hay comentarios,

¡escribe el primero!

Escribe una pregunta, duda o comentario sobre esta canción, te responderemos a la brevedad.

Las más tocadas de Van Halen

Toca una Canción al Azar de Van Halen
C
Em
F
Dm
Am
Bb
G
C/G
Dsus2
A5
A
Asus4