Little Dreamer
Van Halen
Acordes

Subida por dm101
Álbum: Van Halen ( 1978)


Más Versiones
Ver. 2 Ver. 3 Ver. 4
HERRAMIENTAS

Cambiar Cifrado
Americano Latino

Cambiar Tonalidad
-1 +1

Partir Pantalla Imprimir FAQ

Ver solo la LETRA

+A
-A
LETRA CON ACORDES

¿Tu Guitarra esta Afinada? PRUEBA NUESTRO NUEVO AFINADOR

(intro)

|------------------------------
|------------------------------
|---------2--------------------
|-----0-2-0--------------2-----
|-2-2-------2-2-----0-2-0-----
|----------------2-2-------2-2/ repeat x4

(verse)
|----------------------------------------------------------------
|---------------3------------------------------------------------
|---------------2---------------2---------------2----------------
|---------------0---------------2---------------2---------------2
|-------------------------------0-0-0-0-0-0-0-0-0---------------2
|-7-7-7-7-7-7-7---2-2-2-2-2-2-2-------------------0-0-0-0-0-0-0-0 repeat x2
          

(chorus)
|--------------------------------------------------------
|--------------------------------------------------------
|---------2----------------------------------------------
|-----0-2-0--------------2--------------2-----11b12rb11p9
|-2-2-------2-2-----0-2-0----------0-2-0----------------
|----------------2-2-------2-2/-3-3-------3-3------------

|--------------------------------
|--------------------------------
|--------------------------------
|11b12rb11p911b12rb11p911p9------
|--------------------------9p7---
|-----------------------------9p0

|--------------------------------------------
|--------------------------------------------
|---------2----------------------------------
|-----0-2-0--------------2--------------2----
|-2-2-------2-2-----0-2-0----------0-2-0----
|----------------2-2-------2-2/-3-3-------3-3
////////////////// ¿Te Animas? Sube una canción a este sitio. //////////////////

ACORDES PARA GUITARRA

PIANO UKELELE


COMENTARIOS

Aún no hay comentarios,

¡escribe el primero!

Escribe una pregunta, duda o comentario sobre esta canción, te responderemos a la brevedad.

Las canciones más tocadas de Van Halen

Toca una Canción al Azar de Van Halen

09.36


Nuestro servidor se demoró 0.01 segundos en generar esta página. Eso fue realmente muy rápido!