Can't stop lovin' you
Van Halen
Acordes

Subida por Viyou
Álbum: Balance ( 1995)


Más Versiones
Ver. 2 Ver. 3 Ver. 4 Ver. 5 Ver. 6 Ver. 7 Ver. 8

HERRAMIENTAS

Cambiar Cifrado
Americano Latino

Cambiar Tonalidad
-1 +1

Partir Pantalla Imprimir FAQ

Ver solo la LETRA

+A
-A

LETRA CON ACORDES

¿Tu Guitarra esta Afinada? PRUEBA NUESTRO NUEVO AFINADOR

B|- bend
~ - vibrato
/ - slide
h - hammer-on
p - pull-off
pm - palm mute
( )- Harmonico Artificial Com Tapping
v - palhetada para baixo
^ - palhetada para cima



Intro.: ( A4 A A9 A ) Ha!
e|----------------------------------------|
B|-3-3-3-----2----2--------0---------2----|
G|-2-2-2-----2----2--------2---------2----|
D|-2-2-2-----2----2--------2---------2----|
A|-0-0-0-----0----0--------0---------0----|
E|----------------------------------------|

Solo inicial:
( )- Harmonico Artificial Com Tapping

A F#m D E (A4 A A9 A)
E|-------------------------------------------------------------------------------------
B|-10(22)-10b(22)-9(21)-10(22)-10b(22)-10(22)-9(21)-10(22)-10b(22)-10b(22)-10(22)-9(21)
G|-------------------------------------------------------------------------------------
D|-------------------------------------------------------------------------------------
A|-------------------------------------------------------------------------------------
E|-------------------------------------------------------------------------------------

Verso 1

A F#m
there's a time and place for everything, for everyone
D E
we can push with all our might
A F#m
but nothin's gonna come, oh no, nothin's gonna change
D E
and if i asked you not to try
F#m
oh could you let it be

Pre-chorus 1:
D Bm
i wanna hold you and say, we can't throw this all away
G E
tell me you won't go, you won't go, do you have to hear me say

Refrão:
A F#m
i can't stop lovin' you, and no matter what i say or do
D E A
you know my heart is true, oh, i can't stop lovin' you


Fill between chorus and verse (well, sorta):

e|----5-7-4---0------------|
B|------------0------------|
G|----------1-2-1----------|
D|----------------4-2------|
A|-------------------------|
E|-------------------------|

Verso 2:
A F#m
you can change your friends, your place in life, you can change your mind
D E A
we can change the things we say and do anytime
F#m
oh no, but i think you'll find
D E
that when you look inside your heart


Pre-chorus 2:
Bm
oh baby, i'll be there, yeah
C Am
hold on, i'm holding on
F E
baby, just come on, come on, come on, i just wanna hear you say


Refrão:
A F#m
i can't stop lovin' you, and no matter what i say or do
D E A
you know my heart is true, oh, i can't stop lovin' you


Bridge:
Bm E C# A
oh, i'm so twisted and tied, and all i remember
Bm E
was how hard we tried, only to surrender


Interlude and Solo:

C D D/A C/G

E|--------------------|-----------------------------|----------------|-----------------
B|--------------------|-----------------------------|-7-7h8-7--------|-----------------
G|-12/11/9-9/11-12/14-|12/11/9---------------6v7^9v-|----------7-7/9~|--------9/12-----
D|--------------------|---------------5v7^9v--------|----------------|-----------------
A|--------------------|--------5v7^9v---------------|----------------|-----------------
E|--------------------|--------I------------------I-|----------------|-----------------
I I - Usar Sweep Picking

Usar o botão de volume
para criar o efeito

D/A C/G D/A C/G

E|-14-15-15b---------|--------|-10/17-15h17p15p14----------------|---------------------
B|------------15-17~-|--------|-------------------15-------------|---------------------
G|-------------------|--------|----------------------14-12/11----|---------------------
D|-------------------|--------|-------------------------------12-|---------------------
A|-------------------|--------|----------------------------------|-12/10-12p10p9h10p9--
E|-------------------|--------|----------------------------------|---------------------

A9
[ pm ]
E|-----------|----------------------|--------|----------------------|------------------
B|-----------|----------------------|--------|----------------------|------------------
G|-----------|---11h12-11~----12/14~|--------|-9--7--6--------------|------------------
D|-------12~-|-------------12-------|--------|----------7-----------|------------------
A|-10/12-----|----------------------|--------|-------------7--5--4--|------------------
E|-----------|----------------------|--------|----------------------|--5---------------


Pre-chorus 3:
A F#m
and when it's over, i know how it's gonna be
D E (A4 A A9 A )
and true love will never die, no, not fade away


Refrão:
A F#m
and I can't stop lovin' you, and no matter what I say or do
D E A
you know my heart is true, oh, i can't stop lovin' you
F#m
and i know what i got to do
D E A F#m D E
hey, ray, what you said is true, oh, i can't stop lovin' you
(A4 A A9 A )
oh, oh, i can't stop lovin' you////////////////// ¿Te Animas? Sube una canción a este sitio. //////////////////

ACORDES PARA GUITARRA

PIANO UKELELE
A4
A
A9
F#m
D
E
Bm
G
C
Am
F
C#
D/A
C/G


COMENTARIOS

Aún no hay comentarios,

¡escribe el primero!

Escribe una pregunta, duda o comentario sobre esta canción, te responderemos a la brevedad.

Las canciones más tocadas de Van Halen

Toca una Canción al Azar de Van Halen
A4
A
A9
F#m
D
E
Bm
G
C
Am
F
C#
D/A
C/G

08.23


Nuestro servidor se demoró 0.14 segundos en generar esta página. Eso fue realmente muy rápido!