Beautiful Girls
Van Halen
Acordes

Subida por tam5
Álbum: Van Halen II ( 1979)


Más Versiones
Ver. 2 Ver. 3 Ver. 4 Ver. 5 Ver. 6

Cambiar Cifrado
Americano Latino

Cambiar Tonalidad
-1 +1

Partir Pantalla Imprimir FAQ

+A
-A
Main Riff (intro)               1,2,3| 4 
-------------------------------------|---------------------------
-------------------------------------|---------------------------
----2-H-H--2----2-2-----------------.|---------------------------
--2-2--3-4-2----2-2-----P---X-5-5/6-.|-7-64---------------------
--------------------4--5-2--X-5-6/7--|-5-42---------------------
--------------2----------------------|---------------------------
T

Verses (slightly muted)
-------------------O-
-------------------O-
---------------------
----------4---P------ Etc. He does simple variations on this throughout
------2-4-5--4-O-4--- The verses.
--O-O-O--------------

Bridge (These are the chords, I'm not going to try to notate the rythmn)
F#/A / / / / / B / / / / / / / / / /
---------------------------|-------------------------|
--2------------------------|-------------------------|
--2-------------P-P-------.|------------------------.|
--2------------4-2-O------.|-4--------4-2-O---4-----.|
--O------------------2-----|-2--------------2-2------|
--2------------------------|-------------------------|
..What a sweet talkin honey
whith a little bit of money....

E F# G A B C
Here I am, Your man of the world
E F# G A B C
All I need, Is a beautiful girl
G C D E
Ahhhh yeah, beautiful girls

(And in the outro Chorus he does this:)
D A E
Ahhh yeah, beautiful girls

ACORDES PARA GUITARRA

PIANO UKELELE
F#/A
B
E
F#
G
A
C
D


COMENTARIOS

Aún no hay comentarios,

¡escribe el primero!

Escribe una pregunta, duda o comentario sobre esta canción, te responderemos a la brevedad.

Las más tocadas de Van Halen

Toca una Canción al Azar de Van Halen
F#/A
B
E
F#
G
A
C
D