Black And Blue
Van Halen
Acordes

Subida por frankcruzado
Álbum: OU812 ( 1988)


Más Versiones
Ver. 2 Ver. 3 Ver. 4 Ver. 5 Ver. 6

Cambiar Cifrado
Americano Latino

Cambiar Tonalidad
-1 +1

Partir Pantalla Imprimir FAQ

+A
-A
    Legenda                         |-------------------| 
1. intro | / - slide up |
2. lick 1 | - slide down |
3. riff 1 w/end 1 | x - mute |
4. riff 2 | h - hammer on |
5. riff 1 w/end 2 | p - pull off |
6. riff 3 | b - bend |
7. riff 1 w/end 3 | r - release |
8. riff 4 | ^ - harmonic |
9. solo | t - tap |
10. riff 5 | x - pick scrape |
11. riff 6 | v or ~ - vibrato |
12. lick 1 |-------------------|
13. riff 1 w/end 4
14. riff 1 w/end 5
15. riff 7 w/end 6
16. riff 7 w/end 7
17. riff 7 w/end 8
18. riff 7 w/end 9
19. outro

*** TAB SEQUENCE AT BOTTOM ***


1|-------------------------------|---------0-----------0---------|->
2|-------------------------------|-------------0-----------0-----|
3|-------------------------4-/-6-|-7---------------6-----------4-|
4|-------------------------------|-------------------------------|
5|-------------------------2-/-4-|-5---------------4-----------2-|
6|-------------------------------|-0---------------0-----------0-|->
intro

-|-------------------------------|-------0-----------------------|->
-|-------------------------------|-3-----------3----------0------|
-|-------------------------------|-2----------------2------------|
-|-------------------------------|-0----------------2------------|
-|-------------------------2-h-4-|------------------0----------2-|
-|-----0---3b--0---3b-p0---------|-----------------------------0-|->


-|-------------------------------|-------0---------------0-------|->
-|-------------------------------|-------------0-----------------|
-|-------------------------------|-7----------------6------6-/-4-|
-|------------------2------------|-------------------------------|
-|-------------------------2-/-4-|-5----------------4------4-/-2-|
-|-0--3h-4p-3p-0-----------------|-0----------------0----------0-|->

-|-------------------------------|-------0---------------0-------||
-|-------------------------------|-------------0-----------------||
-|-------------------------4-/-6-|-7----------------7----------2-||
-|-------------------------------|-5----------------4----------2-||
-|-------------------------2-/-4-|-0----------------0----------0-||
-|-----0---3b--0---3b-p0---------|-------------------------------||

-|-------------------------------||
-|-------------------------------||
-|-------------------------4-/-6-||
-|-------------------------------||
-|-------------------------2-/-4-||
-|-------------------------------||
lick 1

-|-------------------------------|-------------------------------|->
-|-------------------------------|-------------------------------|
-|-----7-------7-----6------6----|-4-----------------------4-/-6-|
-|-------------------------------|-------------------------------|
-|-----5-------5-----4------4----|-2-----------------------2-/-4-|
-|-----0----------0--0---------0-|-----0---3b--0---3b-p0---------|->
riff 1

-|-------------------------------|-------------------------------|->
-|-------------------------------|-------------------------------|
-|-7----7--------2----2-------9-|-------------------------4-/-6-|
-|-7----7--------2----2-------9-|-------------------------------|
-|-5----5--------0----0--------7-|-------------------------2-/-4-|
-|----------0--------------0---0-|-----3b--3b--3b--3b--3b--------|->
harm.- - - - - ->|

-|-------------------------------|-------------------------------|->
-|-------------------------------|-------------------------------|
-|-----7-------7-----6------6----|-4-----------------------4-/-6-|
-|-------------------------------|-------------------------------|
-|-----5-------5-----4------4----|-2-----------------------2-/-2-|
-|-----0----------0--0---------0-|-----0---3b--0---3b-p0---------|->

-|-------------------------------||
-|-------------------------------||
-|-7----7--------2----2-------9-||
-|-7----7--------2----2-------9-||
-|-5----5--------0----0--------7-||
-|----------0------------3p0---0-||

-|-------------------------------||-------------12^---------------|
-|-------------------------------||---------7^-------12^----------|
-|-------------------------------||-----5^------------------------|
-|-------------------------------||-------------------------------|
-|-----/-x-------------------||-------------------------------|
-|-----/-x-------10-/-14----||--------------------------3b---|
end 1 end 2 open harm.

-|-------------------------------||-------------------------------|
-|-------------------------------||-------------------------------|
-|-------------------------------||--x---------------------4-/-6-|
-|-----x----------------------||--x---------0h2p0h2p0-------|
-|-------------x--------------||--x------------------2-/-4-|
-|-------------------------0---0-||-------------------------------|
end 3 end 4

-|-------------------------------||
-|-------------------------------||
-|-------------------------4-/-6-||
-|------0-----~~~~~~------------||
-|------------------------2-/-4-||
-|------------------------------||
end 5 dive w/bar

-|-------------------------------|-------------------------------|->
-|-------------------------------|-------------------------------|
-|-2-----------------------------|-------------------------------|
-|-2-----------------------------|-------------------------------|
-|-0-----------0x--5x--5x--7v----|-2---------------5x------7v----|
-|-------------------------------|-0-----------7x------7x--------|->
riff 2

-|-------------------------------|-------------------------------|->
-|-------------------------------|-------------------------------|
-|-2-----------------------------|-------------------------------|
-|-2-----------------------------|----7--5h6p5---5h6p5---5h6p5---|
-|-0-----------0x--5x--5x--7----|-------------7-------7-------7-|
-|-------------------------------|-0-----------------------------|->

-|-------------------------------|-------------------------------|->
-|-------------------------------|-------------------------------|
-|-2-----------------------------|-------------------------------|
-|-2-----------------------------|-------------------------------|
-|-0-----------0x--5x--5x--7v----|-2---------------5x------7v----|
-|-------------------------------|-0-----------7x------7x--------|->

-|-------------------------------|-----0-------------------------||
-|-------------------------------|-----0-------------------------||
-|-2-----------------------------|-----4---4---4---4-------------||
-|-2-----------------------------|---------7---6---7---6---4-----||
-|-0-----------0x--5x--5x--7v----|-----------------------------7-||
-|-------------------------------|-0-----------------------------||

-|-------------------------------|-------------------------------|->
-|-------------------------------|-------------------------------|
-|-2-----------------------------|-------------------------------|
-|-2-----------------------------|---------------------5x--------|
-|-0-----------0x--5x--5x--7v----|-2---------------5x------7v----|
-|-------------------------------|-0-----------7x----------------|->
riff 3

-|-------------------------------|-------------------------------|->
-|-------------------------------|-------------------------------|
-|-2-----------------------------|-------------------------------|
-|-2-----------------------------|----7--5h6p5---5h6p5---5h6p5---|
-|-0-----------0x--5x--5^--7^v--|-------------7-------7-------7-|
-|-------------------------------|-0-----------------------------|->

-|-------------------------------|-------------------------------|->
-|-------------------------------|-------------------------------|
-|-2-----------------------------|-------------------------------|
-|-2-----------------------------|---------------------5^--------|
-|-0-----------0x--5x--5x--7v----|-2---------------5x------7^v---|
-|-------------------------------|-0-----------7x----------------|->

-|-------------------------------|--------0------0--0------------||
-|-------------------------------|--------0------0--0------------||
-|-2-----------------------------|----2-/-4--2--1--2---1--------||
-|-2-----------------------------|-------------------------4---2-||
-|-0-----------0x--5x--5x--7v----|-------------------------------||
-|-------------------------------|-0-----------------------------||

-|-------------------------------|-------------------------------|->
-|-------------------------------|-------------12------10p-9-----|
-|-5v--5v----------7v--7v----7/9v|---------9-------------------9|
-|-5v--5v----------7v--7v----7/9v|----/9-----------9-------------|
-|-------------------------------|-------------------------------|
-|---------0---0-----------0-----|-------------------------------|->
riff 4

-|-------------------------------|-------------0---2-------0-----|->
-|-------------------------------|---------4-----------4---5/-75|
-|-5v--5v----------7v--7v------4-|----/4-------------------------|
-|-5v--5v----------7v--7v------4-|-------------------------------|
-|-----------------------------2-|-------------------------------|
-|---------0---0-----------0-----|-------------------------------|->

-|-------------------------------|-------------------------------|->
-|-------------------------------|-------------12------10p-9-----|
-|-5v--5v----------7v--7v----7/9v|---------9-------------------9|
-|-5v--5v----------7v--7v----7/9v|----/9-----------9-------------|
-|-------------------------------|-------------------------------|
-|---------0---0-----------0-----|-------------------------------|->

-|-------------------------------||
-|-------------------------------||
-|-5---------------5-----------4-||
-|-5---------------5-----------4-||
-|-3---------------3-----------2-||
-|---------0---0-----------0-----||

-|-------------------------------|-------------------------------|->
-|-------------------------------|-------------------------------|
-|-------------------------------|-------------------------0h-p2-|
-|-------------------------------|-------------------------------|
-|-----------------5---5^--5^h-7v|--------5---6--6-/-7--7-------|
-|------------/7-----------------|-------------------------------|->
solo trill

-|-------------------------------|-------------------------------|->
-|-------------------------------|-------------------------------|
-|-------------------------------|-7b--t12^r-t14^--t12^--14^br-b-|
-|-----------2^------------------|-------------------------------|
-|-0h2p0-------------------------|-------------------------------|
-|-------3p0-----3br-p0-h3b-t11v-|-------------------------------|->
hold----| tap harm.bend at 7th

-|-----------------/-------------|-------------------------------|->
-|---------------/--------------|----------5v--------5-p-3-h-5--|
-|r14-p-0-----5^/--------2b-----|-r-/-4-------------------------|
-|-------------/--------x-------|-------------------------------|
-|---------------------x--------|-------------------------------|
-|---------------------x---------|-------------------------------|->
dive bar rake
release w/harm.

-|-------------------------------|-------------------------------|->
-|--7----t-8-p-7-p-5-p-3-h-5-h-7-|-t-8-p-7---t-8-p-7-p-5-p-3-h-7-|
-|-------------------------------|-------------------------------|
-|-------------------------------|-------------------------------|
-|-------------------------------|-------------------------------|
-|-------------------------------|-------------------------------|->

-|-------------------------------|-------------------------------|->
-|-t-8-p-7---t-8-p-7-p-5-p-3-h-7-|-t-8-/-10-p-8--t-10-/-11-p-8---|
-|-------------------------------|-------------------------------|
-|-------------------------------|-------------------------------|
-|-------------------------------|-------------------------------|
-|-------------------------------|-------------------------------|->

-|-------------------------------|-------------------------------|->
-|-t-11-p-9--t-11-/-12-p-9--t-12-|p-10--t-12-/-13-p-10--t-13-/-14|
-|-------------------------------|-------------------------------|
-|-------------------------------|-------------------------------|
-|-------------------------------|-------------------------------|
-|-------------------------------|-------------------------------|->

-|-------------------------------|-------------------------------|->
-|-p-11--t-14-/-15-p-11--t-14-/--|15-p-11--t-15-/-16-p-12--t-15-/|
-|-------------------------------|-------------------------------|
-|-------------------------------|-------------------------------|
-|-------------------------------|-------------------------------|
-|-------------------------------|-------------------------------|->

-|-------------------------------|-------------------------------|->
-|-16-p-13--t-16-/-17-p-13--t-16-|/-17-p-14--t-17-/-18-p-14--t-17|
-|-------------------------------|-------------------------------|
-|-------------------------------|-------------------------------|
-|-------------------------------|-------------------------------|
-|-------------------------------|-------------------------------|->

-|-------------------------------|-------------------------------|->
-|-/-18-p-15--t-18-/-19-p-15b-r--|p-12--------------------12-----|
-|-------------------------------|------14-b--r-p-12--14------12-|
-|-------------------------------|-------------------------------|
-|-------------------------------|-------------------------------|
-|-------------------------------|-------------------------------|->

-|--------------------------15---|--------------15-----15--------|->
-|-----------------15b-----------|--15--15b-15b-15b-v--15---19b--|
-|-0----------------------------|-------------------------------|
-|------------------------------|-------------------------------|
-|-----------/------------------|-------------------------------|
-|---------/--------------------|-------------------------------|->
bar dive

-|----19-19-19-19----19--19------|-----22------------22b-22br-17-|->
-|-19b--r19----19b-r-19b-19bv-22b|-22b---r22-22-p-20-------------|
-|-------------------------------|-------------------------------|
-|-------------------------------|-------------------------------|
-|-------------------------------|-------------------------------|
-|-------------------------------|-------------------------------|->

-|-----17-16-17-16---------------|-x2-------------------------0--|->
-|-----------------17v----------|----------------------------0--|
-|----------------------------x2-|-------x2-x-x2-x2-x0-h-x2--x2--|
-|-------------------------------|-------------------------------|
-|-------------------------------|-------------------------------|
-|-------------------------------|-------------------------------|->

-|-0---0---0---0---0---0---0---0-|-0---0---0---0---0---0---0---0-|->
-|-0---0---0---0---0---0---0---0-|-0---0---0---0---0---0---0---0-|
-|-2---2b--2---2---2---2---2---2-|-2---2---2---2---2---2---2---2-|
-|-------------------------------|-------------------------------|
-|-------------------------------|-------------------------------|
-|-------------------------------|-------------------------------|->
gradual bend to full------------gradual release--------->|

-|-0-/-0-------------------------|----0--0--0--0-----0--0--0-----||
-|-0-/-0---3---5-p-3---5-p-3-p-0-|-3/-5--5--5--5--3/-5--5--5-----||
-|-2-/-4-------------------------|-------------------------------||
-|-------------------------------|-------------------------------||
-|-------------------------------|---------------------------12-||
-|-------------------------------|---------------------------12-||

-|-------------------------------|-------------------------------|->
-|-------------------------------|-------------------------------|
-|---7---------------------------|---9--------x-----------------|
-|---7---------------------------|---9--------x--x-------------|
-|---5---------------------------|---7------------x--x---------|
-|-------------------------------|---0----------------x---------|->
riff 5

-|-------------------------------|-------------------------------|->
-|-------------------------------|-------------------------------|
-|---7--7--7---------------------|---9-------x-----------------|
-|---7--7--7---------------------|---9-------x--x-------------|
-|---5--5--5-------------------0-|---7-----------x--x---------|
-|-------------------------------|---0----------------x---------|->

-|-------------------------------|-------------------------------|->
-|-------------------------------|-------------------------------|
-|---7--7--7---------------------|---9--9--9---------x---------|
-|---7--7--7---------------------|---9--9--9---------x--x-----|
-|---5--5--5---------------------|---7--7--7-------------x-----|
-|-------------------------------|---0--0--0---------------------|->

-|-------------------------------|-------------------------------||
-|-------------------------------|-------------------------------||
-|--7-----7-----7----------------|-9----------------------------||
-|--7-----7-----7-----7-----7----|-9----------------------------||
-|--5-----5-----5-----7-----7----|-7----------------------------||
-|--------------------5-----5----|-0-----------------------------||

-|---------0-----------0---------|-------------------------------|->
-|-------------0-----------0-----|-------------------------------|
-|-7---------------6-----------4-|-------------------------------|
-|-------------------------------|-------------------------------|
-|-5---------------4-----------2-|-------------------------2-h-4-|
-|-0-----------------------------|---------3b------3b-p0---------|->
riff 6 (clean)

-|-------0-----------------------|-------------------------------|->
-|-3-----------0----------0------|-------------------------------|
-|-2----------------2------------|-------------------------4-/-6-|
-|-0----------------2----------2-|-----------0h2p0h2p0h2p0-------|
-|------------------0----------2-|-------------------------2-/-4-|
-|-----------------------------0-|-0---3b-p0---------------------|->

-|---------0-----------0---------|-------------------------------|->
-|-------------0-----------0-----|-------------------------------|
-|-7---------------6-----------4-|-------------------------------|
-|-------------------------------|-------------------------------|
-|-5---------------4-----------2-|-------------------------2-h-4-|
-|-0---------------0-----------0-|-----0---3b--0---3b-p0---------|->

-|-------0-----------------------|-------------------------------||
-|-3-----------3----------0------|---------------8---------------||
-|-2--2-------------2------------|---------------7---------4-/-6-||
-|-0----------------2----------2-|---------------6---------------||
-|------------------0----------2-|---------------7---------2-/-4-||
-|-----------------------------0-|-------------------------------||
semi-clean

-|-------------------------------||
-|-------------------------------||
-|--7-----7-----7-----2-----2----||
-|--7-----7-----7-----2-----2----||
-|--5-----5-----5-----0-----0----||
-|-------------------------------||
riff 7

-|-------------------------------||------------------12^----------|
-|-------------------------------||------------7^-----------------|
-|-------------------------4-/-6-||------5^-----------------4-/-6-|
-|-2---------x-----------------||-2-----------------------------|
-|-2---------x----------2-/-4-||-2-----------------------2-/-4-|
-|-0-----------------------------||-0-----------------------------|
end 6 end 7

-|-------------------------------||-------------------------------|
-|-------------------------------||-------------------------------|
-|-9-----------------------4-/-6-||-9-----------------------------|
-|-9---------x-----------------||-9-----------------------------|
-|-7---------x----------2-/-4-||-7-----------------------------|
-|-0-----------------------------||-0-----------------------------|
end 8 end 9

-|--0---------------------------|-------------------------------|->
-|--0---------------------------|-------------------------------|
-|--0---------------------------|---/7-----7-----6-----6----4--|
-|--0---------------------------|-------------------------------|
-|--0---------------------------|---/5-----5-----4-----4----2--|
-|--0-----~~~~~~~~~~~~~~~~~~~~--|-------------------------------|->
outro dive all strings and shake

-|-------------------------------|-------------------------------|->
-|-------------------------------|-------------------------------|
-|-------------------------4-/-6-|---------7--------------2-----|
-|-------------------------------|---------7--------------2---2-|
-|-------------------------2-/-4-|-5x--5x----------0x-0x-------2-|
-|-------------------------------|-----------------------------0-|->

-|-0-----------------------------|-------------------------------|->
-|-0---------------3---3---------|-------------------------------|
-|-----2br-p0------0---0---0-----|----------7-----6-----6----4--|
-|-------------2-----------0h-2v|----7x-------------------------|
-|-------------------------------|----5x----5-----4-----4----2--|
-|-------------------------------|-------------0-----------------|->

-|-------------------------------|-------------------------------|->
-|-------------------------------|-------------------------------|
-|---------------0---------------|-------------7--------------9-|
-|---------------0------2v------|-5-/-7-------7--------------9-|
-|-------------------------------|-5-/-7---7^--5--0x----------7-|
-|-----3b--p0--------------------|---------------------3---0-----|->

-|----------------7--------------|-------------------------------|->
-|----------7-7-7-8--------------|-------------------------------|
-|----------9-9-9-9--------4-/-6-|----7-----7-----6-----6----4--|
-|----------9-9-9-9--------------|-------------------------------|
-|-------------------------2-/-4-|----5-----5-----4-----4----2--|
-|-------------------------------|----0--------0-----------------|->

-|-------------------------------|-------------------------------|->
-|-------------------------------|----------3--------------------|
-|-------------------------------|------2---------2-----2--------|
-|---------------------2---------|--0-------------2-----2----2---|
-|-------------------------2-h-4-|----------------0-----0----2---|
-|-----0---3b-p0---3b------------|---------------------------0---|->

-|-------------------0-----------|-------------------------------|->
-|-------------------0-----------|-------------------------------|
-|-------------------------4-/-6-|----7-----7-----6-----6----4--|
-|-------------------------------|-------------------------------|
-|-------------------------2-/-4-|----5-----5-----4-----4----2--|
-|-----0x--3br-p0----------------|----0--------0-----------------|->

-|-------------------------------|-------------------------------|->
-|-------------------------------|-------------------------------|
-|-------------------------4-/-6-|----7-----7-----2-----2-----9|
-|-------------------------------|----7-----7-----2-----2-----9|
-|-------------------------2-/-4-|----5-----5-----0-----0------7|
-|-----0---3b------3b-p0---------|--------------------------0----|->

-|-------------------------------|-------------------------------|->
-|-------------------------------|-------------------------------|
-|-------------------------4-/-6-|----7-----7-----6-----6----4--|
-|-----0-h-2-h-4--5-/-6----------|-------------------------------|
-|----------------4-/-5----2-/-4-|----5-----5-----4-----4----2--|
-|-0-----------------------------|----0--------0-----------------|->

-|-------------------------------|-------------------------------||
-|-------------------------------|-------------------------------||
-|-------------------------------|----------7----------2--------||
-|--------------------------2----|----------7-----2x---2---2----||
-|-------------------------------|-2-/-5----5-----0x---0---2----||
-|-----0---3br--p0---3b----------|--------------------------0----||

ACORDES PARA GUITARRA

PIANO UKELELE


COMENTARIOS

Aún no hay comentarios,

¡escribe el primero!

Escribe una pregunta, duda o comentario sobre esta canción, te responderemos a la brevedad.

Las más tocadas de Van Halen

Toca una Canción al Azar de Van Halen