Feel Your Love Tonight
Van Halen
Acordes

Subida por MatiasRolon1301
Álbum: Van Halen ( 1978)


Más Versiones
Ver. 2 Ver. 3 Ver. 4 Ver. 5 Ver. 6

Cambiar Cifrado
Americano Latino

Cambiar Tonalidad
-1 +1

Partir Pantalla Imprimir FAQ

+A
-A


Intro
Q=135
4/4
Gtr I
~~~~~~~~PM PM PM| ~~~~~~~~PM PM ~
E E E a E +E E E E E E E a E +E E E E E E E a E
|-----------|---------------------|---------------------|
|-----------|---------------------|---------------------|
|-----------|---------------------|---------------------|
|-----------|-----------------3s4-|-(4)-----------------|
|-------5s7-|-(7)---5---4-----4s5-|-(5)---4---2-----5s7-|
|---3-4-----|-----0---0---0-0-----|-----0---0---3-4-----|


~~~PM PM PM| ~~~~~~~~PM PM ~~~~~~~~PM PM PM| ~
+E E E E E E E a E +E E E E E E E a E +E E E E E E E a E
|---------------------|---------------------|---------------------|
|---------------------|---------------------|---------------------|
|---------------------|---------------------|---------------------|
|-----------------3s4-|-(4)-------------4s6-|-(6)---4---2-----3s4-|
|-(7)---5---4-----4s5-|-(5)---4---2-----5s7-|-(7)---5---4-----4s5-|
|-----0---0---0-0-----|-----0---0---3-4-----|-----0---0---0-0-----|


~~~PM PM ~~~~~~~~PM PM PM| ~~~~~~~~PM PM
+E E E E E E E a E +E E E E E E E a E +E E E E E E E E
|-----------------------|---------------------|---------------------||
|-----------------------|---------------------|---------------------||
|-----------------------|---------------------|-------------------2-||
|-(4)---2---(2)-----4s6-|-(6)---4---2-----3s4-|-(4)---2---(2)-----2-||
|-(5)---4----2------5s7-|-(7)---5---4-----4s5-|-(5)---4----2------0-||
|-----0---0-----3h4-----|-----0---0---0-0-----|-----0---0-----3-4---||


Verse 1
~
+H.. E +H e E E E +H. E E +H E E E a E
|--------------|----------------|--------------|------------------|
|------------3-|-(3)----x-------|------------3-|-(3)----3---------|
|-(2)--------2-|-(2)----x-----2-|-(2)--------2-|-(2)----2---------|
|-(2)--------4-|-(4)----x-----2-|-(2)--------4-|-(4)----4---------|
|-(0)--------0-|-(0)----x-----0-|-(0)------x-0-|-(0)----0-----5s7-|
|--------------|----------3-4---|----------x---|----------3-4-----|


~~~PM PM PM| ~~~~~~~~PM PM ~~~
+E E E E E E E a E +E E E E E E E a E
|---------------------|---------------------|
|---------------------|---------------------|
|---------------------|---------------------|
|-----------------3s4-|-(4)-----------------|
|-(7)---5---4-----4s5-|-(5)---4---2-----5s7-|
|-----0---0---0-0-----|-----0---0---3-4-----|


~~~~~PM PM PM| ~~~~~~~~PM PM
+E E E E E E E a E +E E E E E E E E
|---------------------|-------------------|
|---------------------|-------------------|
|---------------------|-----------------2-|
|-----------------3s4-|-(4)-------------2-|
|-(7)---5---4-----4s5-|-(5)---4---2-----0-|
|-----0---0---0-0-----|-----0---0---3-4---|


~
+H. E E +H +E E E E +Q H E E +H +E E E a E
|--------------|------------------|-----------------|--------------------|
|------------3-|-(3)----(3)-------|---------------3-|-(3)----(3)---------|
|-(2)--------2-|-(2)----(2)-----2-|-(2)--(2)----x-2-|-(2)----(2)---------|
|-(2)--------4-|-(4)----(4)-----2-|-(2)---2-----x-4-|-(4)----(4)---------|
|-(0)------x-0-|-(0)----(0)-----0-|-(0)---0-----x-0-|-(0)----(0)-----5s7-|
|----------x---|------------3-4---|-----------------|------------3-4-----|


~~~PM PM PM| ~~~~~~~~PM PM ~~~
+E E E E E E E a E +E E E E E E E a E
|---------------------|---------------------|
|---------------------|---------------------|
|---------------------|---------------------|
|---------------------|-----------------4s6-|
|-(7)---5---4-----4s5-|-(5)---4---2-----5s7-|
|-----0---0---0-0-----|-----0---0---3-4-----|


~~~~~PM PM PM| ~~~~~~~~PM PM
+E E E E E E E a E +E E E E E E E E
|---------------------|-------------------|
|---------------------|-------------------|
|---------------------|-----------------5-|
|-(6)---4---2-----3s4-|-(4)---2---2-----5-|
|-(7)---5---4-----4s5-|-(5)---4---2-----3-|
|-----0---0---0-0-----|-----0---0---3-4---|


PM--|
+E E E E E E E E +Q E E E E E E
|-----------------------|------------------|
|---------5-5-7-5-------|------------------|
|-(5)-----5-5-5-5----5--|-(5)------------4-|
|-(5)-----5-5-5-5----5--|-(5)--x-x-------4-|
|-(3)-(3)---------3-(3)-|-(3)--x-x-4-4-4-2-|
|-----------------------|------x-x-2-2-2---|


T ~~ ~
+Q Q E.S a Q H E E E a E
|-------------------|-------------------||
|-------------------|-------------------||
|-(4)---------------|-------------------||
|-(4)--9s==xsx------|-------------------||
|-(2)--9s=14sxp4s9s=|=14-----------5s7--||
|-------------------|-------x-3-4------||


Chorus
~~~PM PM PM| ~~~~~~~~PM PM
+E E E E E E E a E +E E E E E E E E
|---------------------|------------------------|
|---------------------|------------------------|
|---------------------|------------------12b13-|
|---------------------|------------------------|
|-(7)---5---4-----3s5-|-(5)---4---2---x/-------|
|-----0---0---0-0-----|-----0---0---3-4/-------|


~~
|---3---| |-3--|
E S S E S S S S S S S S S S E E E E E E S E. +E E
|-9----------------------------------------|---------------------------------||
|---12p9-------14p9-12p9-------9-14p9-12p9-|-------9-------------------------||
|--------12b13-----------12b13-------------|-12b13---12-11-10-9---9--(9)-2--||
|------------------------------------------|------------------------------2--||
|------------------------------------------|------------------------------0--||
|------------------------------------------|---------------------------------||


Verse 2
PM--| PM ~
+H. E E +H E E E E +H a E E E E +E E Q E E e a E
|--------------|----------------|------------------|---------------------|
|------------3-|-(3)------5p3---|----------------3-|-(3)-----------------|
|-(2)--------2-|-(2)----------2-|-(2)------------2-|-(2)-----------------|
|-(2)------x-4-|-(4)----x-5s4-2-|-(2)--------2-4-4-|-(4)---6--4-2--------|
|-(0)------x-0-|-(0)----x-----0-|-(0)----2s4-----0-|-(0)-0----------5s7--|
|----------x---|--------x-------|------------------|--------------0------|


~~~PM PM PM| ~~~~~~~~PM PM ~~~
+E E E E E E E a E +E E E E E E E a E
|---------------------|---------------------|
|---------------------|---------------------|
|---------------------|---------------------|
|-----------------3s4-|-(4)-------------4s6-|
|-(7)---5---4-----4s5-|-(5)---4---2-----5s7-|
|-----0---0---0-0-----|-----0---0---3-4-----|


~~~~~PM PM PM ~~~~~~~~PM PM
+E E E E E E E a E +E E E E E E E E
|---------------------|---------------------|
|---------------------|---------------------|
|---------------------|-------------------2-|
|-(6)---4---2-----3s4-|-(4)---2---(2)-----2-|
|-(7)---5---4-----4s5-|-(5)---4----2------0-|
|-----0---0---0-0-----|-----0---0-----3-4---|


PM| PM ~
+H. E E +H S S E E E +H a E E E E +E E Q E E e a E
|--------------|------------------|------------------|--------------------|
|------------3-|-(3)--------5p3-2-|-(2)------------3-|-(3)----------------|
|-(2)--------2-|-(2)----x-x-----2-|-(2)------------2-|-(2)----------------|
|-(2)------x-4-|-(4)----x-x-5s4-2-|-(2)--------2-4-4-|-(4)---6--4-2-------|
|-(0)------x-0-|-(0)----x-x-0---0-|-(0)----2s4-----0-|-(0)-0----------5s7-|
|----------x---|------------------|------------------|--------------0-----|


~~~PM PM PM| ~~~~~~~~PM PM ~~~
+E E E E E E E a E +E E E E E E E a E
|---------------------|---------------------|
|---------------------|---------------------|
|---------------------|---------------------|
|-----------------3s4-|-(4)-------------4s6-|
|-(7)---5---4-----4s5-|-(5)---4---2-----5s7-|
|-----0---0---0-0-----|-----0---0---3-4-----|


~~~~~PM PM PM ~~~~~~~~PM PM
+E E E E E E E a E +E E E E E E E E
|---------------------|-------------------|
|---------------------|-------------------|
|---------------------|-----------------5-|
|-(6)---4---2-----3s4-|-(4)---2---2-----5-|
|-(7)---5---4-----4s5-|-(5)---4---2-----3-|
|-----0---0---0-0-----|-----0---0---3-4---|


PM--|
+E E E E E E E E +Q E E E E E E
|---------------------|------------------|
|-------7---7-5----5--|-(5)--x-x---------|
|-(5)---5---5-5----5--|-(5)--x-x-------4-|
|-(5)---5---5-5----5--|-(5)--x-x-------4-|
|-(3)-x---------3-(3)-|-(3)--x-x-4-4-4-2-|
|---------------------|----------2-2-2---|


T
H a Q. E H Q E E
|-------------------|------------------||
|-------------------|------------------||
|-(4)---------------|-(4)----(4)-------||
|-(4)---------------|-(4)----(4)-----9-||
|-(2)---------------|-(2)----(2)-----7-||
|--------7s14----14s|=19-----------0---||
+W +H +E E Q


Chorus
PM PM PM| PM PM PM
+E E E E E E E E +E E E E E E E E
|-------------------|-------------------|
|-------------------|-------------------|
|-------------------|-------------------|
|-(9)---7---7-----7-|-(7)---7---7s9---9-|
|-(7)---4---5-----5-|-(5)---4---5s7---7-|
|-----0---0---0-0---|-----0---0-----0---|
|-Rhy Fig 1 end Rhy Fig 1-|

Rhy Fig 1 x2


PM PM PM| PM
+E E E E E E E E +E E E S S E E E E
|-------------------|------------------------||
|-------------------|------------------------||
|-------------------|----------------------2-||
|-(9)---7---7-----7-|-(7)---7-x-x-7s9-(9)-2-||
|-(7)---4---5-----5-|-(5)---4-x-x-5s7-(7)-0-||
|-----0---0---0-0---|-----0---x-x------0-----||


Verse 3
PM--| PM ~
+H. E E +H E E E E +H a E E E E +E E Q E E E a E
|--------------|----------------|------------------|-----------------------|
|------------3-|-(3)------5p3---|----------------3-|-(3)-------------------|
|-(2)--------2-|-(2)----------2-|-(2)------------2-|-(2)---1--(2)----------|
|-(2)------x-4-|-(4)----x-5s4-2-|-(2)--------2-4-4-|-(4)---2---4--2--------|
|-(0)------x-0-|-(0)----x-----0-|-(0)----2s4-----0-|-(0)-x------------5s7--|
|----------x---|--------x-------|------------------|----------------0------|


PM PM PM| ~~~~~~~~PM PM ~~~
+E E E E E E E a E +E E E E E E E a E
|---------------------|---------------------|
|---------------------|---------------------|
|---------------------|---------------------|
|---------------------|-----------------4s6-|
|-(7)---5---4-----3s5-|-(5)---4---2-----5s7-|
|-----0---0---0-0-----|-----0---0---3-4-----|


~~~~~PM PM ~~~
+E E E E E S S E a a a E +E +E +E +E +Q E E
|-------------------------------|----------------------------------|
|-------------------------------|----------------------------------|
|-------------------------9b10==|=(9)-(9)r(9)b12==(9)r(9)--(9)-2--|
|-(6)-------------------x-x-----|-(x)-----------------------x--2--|
|-(7)---5---4-x-x-----x---------|-------------------------------0--|
|-----0---0---0-0-0-x-----------|----------------------------------|


+H +S S E +S S E +H E E E E
|------------------------|----------------|
|--------------2-(2)---3-|-(3)------5p3---|
|-(2)----(2)---2-(2)---2-|-(2)----------2-|
|-(2)----(2)---2-(2)---4-|-(4)----x-5s4-2-|
|-(0)----(0)-----------0-|-(0)----x-0---0-|
|------------------------|--------x-------|


PM--| PM ~
H a E E E E +E E Q E E E a E
|------------------|-----------------------|
|----------------3-|-(3)-------------------|
|-(2)------------2-|-(2)-----1-------------|
|--2---------2-4-4-|-(4)-----2--4-2--------|
|--0-----2s4-----0-|-(0)-(0)----------5s7--|
|------------------|----------------0------|


~~~PM PM PM| ~~~~~~~~ PM ~~~
+E E E E E E E a E +E E E E E E E a E
|---------------------|---------------------|
|---------------------|---------------------|
|---------------------|---------------------|
|---------------------|---------------------|
|-(7)---5---4-----3s5-|-(5)---4---2-----5s7-|
|-----0---0---0-0-----|-----0---0---3-4-----|


~~~~~PM PM PM| ~~~~~~~~ PM
+E E E E E E E a E +E E E E E E E E
|---------------------|--------------------|
|---------------------|--------------------|
|---------------------|--------------------|
|---------------------|--------------------|
|-(7)---5---4-----3s5-|-(5)---4---2-----2S=|
|-----0---0---0-0-----|-----0---0---3-4----|


PM
E E E E E E E E +Q E E E E E E +H. +Q +H +Q E E
|-----------------|------------------|---------------|-------------------||
|-----7---7-7---5-|-(5)--5-5---------|---------------|-------------------||
|-x-5-5---5-5---5-|-(5)--5-5-------4-|-(4)------(4)--|-(4)----(4)/-------||
|-5-5-5-x-5-5---5-|-(5)--5-5-------4-|-(4)------(4)--|-(4)----(4)/----9--||
|-3-3---3-3-3-3---|------3-3-4-4-4-2-|-(2)------(2)--|-(2)----(2)/----7--||
|-------x-----x---|----------2-2-2---|---------------|--------------0----||


Chorus
Rhy Fig 1 x3

Gtr II
W H E E E S S
|-------------------|-----------------------------||
|-------------------|-------------------12--------||
|-------------------|----------------------14b16==||
|-------------------|-------------7s9s7-----------||
|-------------------|-------------5s7s5-----------||
|-------------------|-----------------------------||
|
| Gtr I
| PM PM PM| PM
| +E E E E E E E E +E E E S S E E E E
|-------------------|-----------------------------||
|-------------------|-----------------------------||
|-------------------|--------------------2--------||
|-(9)---7---7-----7-|-(7)---7-x-x--------2--------||
|-(7)---4---5-----5-|-(5)---4-x-x--------0--------||
|-----0---0---0-0---|-----0---x-x---3-4-----------||


Guitar Solo
|---3----| |---3---|
+E +S +S S E S S +S S E S S +S S S
|---------------------------------------------------------------------12-|
|-------------------------12--------------15-------15--------------12----|
|-(14)-(14)r(14)p12-14b16----14b16==(14)r----14b16--x-14b16==(14)r-------|
|------------------------------------------------------------------------|
|------------------------------------------------------------------------|
|------------------------------------------------------------------------|
|
| +H. E E
|------------------------------------------------------------------------|
|--------------------------------------------------------------3---------|
|--(2)----------------------------------------------x----------2---------|
|--(2)----------------------------------------------x----------4---------|
|--(0)----------------------------------------------x----------0---------|
|------------------------------------------------------------------------|


E S S S S S S S S E E E +E S S E +E S S E +E S S
|-------12------------------------------17b19==|=(17)r-17-18-17b19==(17)r-17-18-17b19==(17)r-17-17-|
|-15b17----12-15p12----12----------------------|---------------------------------------------------|
|-------------------15----15s14-12--x----------|---------------------------------------------------|
|----------------------------------------------|---------------------------------------------------|
|----------------------------------------------|---------------------------------------------------|
|----------------------------------------------|---------------------------------------------------|
|
| PM PM----|
| +H. +E E +E E Q E E E E
|----------------------------------------------|---------------------------------------------------|
|-(3)------------------------------(3)/--------|---------------------------------------------------|
|-(2)------------------------------(2)/--------|---------------------------------------------------|
|-(4)------------------------------(4)/--7-----|--(7)---------9------------7------------------7----|
|-(0)------------------------------(0)---5-----|--(5)---------5------------5------------------5----|
|----------------------------------------------|--------0------------------------0-------0---------|


~~
E +E +S +S S S E +E S S S S
|-18b22==(18)-(18)r(18)------------------0-------|
|-----------------------17h20-17-(17)-----12h14-|
|------------------------------------------------|
|------------------------------------------------|
|------------------------------------------------|
|------------------------------------------------|
|
| PM
| +E E Q E E E E
|------------------------------------------------|
|------------------------------------------------|
|-------------------------------------------2----|
|-(7)-----------9--------------7------------2----|
|-(5)-----------5--------------5------------0----|
|----------0-----------------------3---4---------|


PM| ~~
|--3--| |--3---| |--3---|
S S S S S S S S S S S S S S S S S S S S S S a Q E E E E E
|-----------------------------------------------------|--------------------------------9--------|
|-----------------------------------------------------|------------------------0---------12---9-|
|-14--12p11----12p11----11----------------------------|------------------------0-11b13----------|
|-----------14-------14----12-14-11h12p11----11-------|-----------------------------------------|
|-----------------------------------------14----12-14-|-11h=12p11----11-11s14-------------------|
|-----------------------------------------------------|-----------14----------------------------|
|
| +H. E E +H E E E E
|-----------------------------------------------------|-----------------------------------------|
|------------------------------------------------3----|-(3)--------------------4----------------|
|-(2)--------------------------------------x-----2----|-(2)--------------------3------------6---|
|-(2)--------------------------------------x-----4----|-(4)--------------------1------------6---|
|-(0)--------------------------------------x-----0----|-(0)---------------------------------4---|
|-----------------------------------------------------|---------------------------4----4--------|


|---3---| |---3---| |------6-------|
E E E E E E Q S S S S S S
|-------9------------9----------------9---------|
|---------12-9---------12b14--------9---12p9----|
|-11b13--------11b13----------11b12----------11-|
|-----------------------------------------------|
|-----------------------------------------------|
|-----------------------------------------------|
|
| +W
|-----------------------------------------------|
|-----------------------------------------------|
|-(6)-------------------------------------------|
|-(6)-------------------------------------------|
|-(4)-------------------------------------------|
|-----------------------------------------------|


TP TP TP TP TP TP TP TP
|------6------| |---3---| |------3-------|
S S S S S S S S S S S E +S S E E E. S E E Q Q E E
|-------------9-----------------------------12----12-----|-12----14-14-15S17S==19S==22---22--|
|--9--------9---12p9-------9----------------15b17-15b17==|=15r-------------------------------|
|-----12p11----------11b12---12s11-9-(9)sx--------------|-----------------------------------|
|--------------------------------------------------------|-----------------------------------|
|--------------------------------------------------------|-----------------------------------|
|--------------------------------------------------------|-----------------------------------|
|
| PM PM---|
| +Q. E E E E E +E E Q E E E E
|--------------------------------------------------------|-----------------------------------|
|--------------------------------------------------------|-----------------------------------|
|-(6)-------------------------x----6--5------4-----------|-----------------------------------|
|-(6)-------------------------x----6--5------4-----2-----|-(2)-------4-----2-----------2-----|
|-(4)-------------------------x----4--3------2-----0-----|-(0)-0-----0-----0-0----0----0-----|
|--------------------------------------------------------|-----------------------------------|


|--3--| |-----3-----|
S +S +S +S S S S S S +Q +S S E E
|-22b24r(22)b24==(22)-(22)r--------12-15b19==(15)---(15)r-x-12------|
|------------------------------0-12-------------------------------12-|
|--------------------------------------------------------------------|
|--------------------------------------------------------------------|
|--------------------------------------------------------------------|
|--------------------------------------------------------------------|
|
| PM PM
| +E E E E E E E E
|--------------------------------------------------------------------|
|--------------------------------------------------------------------|
|--------------------------------------------------------------------|
|-(2)------------------------4------------------2--2------------2----|
|-(0)--------------0---------0----x-------------0--0---0--------0----|
|--------------------------------------------------------------------|


~~~~~
E E +S E S S S S S S S S S S S S S S S E Q S S E
|-------------------------------------------------|-------------------------------------------|
|-15b17==15-(15)r-17---12-------12----15p12-------|-12-----15p12----12------------------6b8===|
|-------------------------15-16----15-------16-16-|*|
|-------------------------------------------------|----------------------------xs==xsx/-------|
|-------------------------------------------------|-------------------------------------------|
|-------------------------------------------------|-------------------------------------------|
|
| +E E E E E E E E +E E E E Q E E
|-------------------------------------------------|-------------------------------------------|
|-------------------------------------------------|-------------------------------------------|
|-------------------------------------------------|-------------------------------------5-----|
|-(2)-----2---4------------2-----x-----x-----2----|-(2)-----7-----9-----7------7--x----5-----|
|-(0)-----0---0------0-----0-----x-----x-----0----|-(0)-----5-----5-----5------5--x----3-----|
|-------------------------------------------------|-------------------------------------------|


~~~~~~ ~~~~~~
+E E S S E +Q S S E +E E S S E +E T S. E E
|------------------------------|------------------------------|
|-(6)r-6-5---------------8b10==|=(8)r-8-7---------------------|
|----------5-----------0-------|----------7-----------------4-|
|------------5-(5)--x----------|------------7-(7)-----------4-|
|------------------------------|------------------x--xs=x--2-|
|------------------------------|--------------------10s=x----|
|
| +H. E E +H. +E E
|------------------------------|------------------------------|
|------------------------------|------------------------------|
|-(5)---------------x/---7-----|-(7)-------------------(x)-4-|
|-(5)---------------x/---7-----|-(7)-------------------(x)-4-|
|-(3)---------------x/---5-----|-(5)-------------------(x)-2-|
|------------------------------|------------------------------|


+W +H +Q. E
|--------------------------|-------------------||
|--------------------------|-------------------||
|-(4)----------------------|-(4)----([4])------||
|-(4)----------------------|-(4)----([4])---2--||
|-(2)----------------------|-(2)----([2])---2--||
|--------------------------|----------------0--||
|
| T
| Q E E E +E E +E H +Q. E
|--------------------------|-------------------||
|--------------------------|-------------------||
|-(4)----------------------|-(4)-----(4)-------||
|-(4)----------------------|-(4)-----(4)----2--||
|-(2)----------------------|-(2)-----(2)----2--||
|--------7s11-(11)s14-(14)s|=19-------------0--||
+W


Chorus
Gtr I
PM PM PM|
Wx3 H Q E E +E E E E E E E E
|------------|-------------||--------------------|
|------------|-------------||o-------------------|
|------------|-------------||--------------------|
|------------|-----------9-||--(9)---7---7-----7-|
|------------|-----------7-||o-(7)---4---5-----5-|
|------------|-------------||------0---0---0-0---|


PM PM PM PM PM PM| PM PM ~
+E E E E E E E E 3x +E E E E E E E E +E E E E E E E a E
|--------------------||-------------------|---------------------||
|-------------------o||-------------------|---------------------||
|--------------------||-------------------|---------------------||
|-(7)---7---7s9---9--||-(9)---7---7-----7-|-(7)---7---7---------||
|-(5)---4---5s7---7-o||-(7)---4---5-----5-|-(5)---4---5-----5s7-||
|-----0---0-----0----||-----0---0---0-0---|-----0---0---3-4-----||


Outro
~~~PM PM PM| ~~~~~~~~PM PM ~~~
+E E E E E E E a E +E E E E E E E a E
|---------------------|---------------------|
|---------------------|---------------------|
|---------------------|---------------------|
|-------4---2-----3s4-|-(4)-------------4s6-|
|-(7)---2---2-x-x-4s5-|-(5)---4---2-----5s7-|
|-----0---0---0-0-----|-----0---0---3-4-----|


~~~~~PM PM PM| ~~~~~~~~PM PM
+E E E E E E E a E +E E E E E E E E Wx3
|---------------------|-------------------|--------*|
|---------------------|-------------------|--------*|
|---------------------|-------------------|--------*|
|-(6)---4---2-----3s4-|-(4)---4---2-------|--------*|
|-(7)---5---4-x-x-4s5-|-(5)---2---2-----2-|--------*|
|-----0---0---0-0-----|-----0---0---3-4-0-|--------*|

ACORDES PARA GUITARRA

PIANO UKELELE


COMENTARIOS

Aún no hay comentarios,

¡escribe el primero!

Escribe una pregunta, duda o comentario sobre esta canción, te responderemos a la brevedad.

Las más tocadas de Van Halen

Toca una Canción al Azar de Van Halen