Get Up
Van Halen
Acordes

Subida por Sarai
Álbum: 5150 ( 1986)


Más Versiones
Ver. 2 Ver. 3 Ver. 4 Ver. 5 Ver. 6

Cambiar Cifrado
Americano Latino

Cambiar Tonalidad
-1 +1

Partir Pantalla Imprimir FAQ

+A
-A
Intro
E |---------------------------------------------------------------------------|
B |---------------------4b~---4~b-----------2---4-------2---------------------|
G |--4---4b~--4~----4~--4b~---4~b---4-4-2-4-2---4-4-2-4-2---------------------|
D |--4---4b~--4~----4~--2b~---2~b---4-4-2-4-0x2-2-4-2-4-0---------------------|
A |--2---2b~--2~----2~--------------2-2-0-2-------2-0-2-----------------------|
E |---------------------------------------------------------------------------|
Main Beat
E |-----------------------------------------------------------------------------|
B |-------------2------4--2--------------2--------------------------------------|
G |--4----4-2-4-2------4--2--2-4---4-2-4-2--------------------------------------|
D |--4----4-2-4-0-x2---2--0--2-4---4-2-4-0-x2-----------------------------------|
A |--2----2-0-2--------------0-2---2-0-2----------------------------------------|
E |-----------------------------------------------------------------------------|
Verse PM:.................
E |---------------------------------------------------------------------------|
B |------------------------------4-2-4-2-4--4---------------------------------|
G |-----4-4------4-4-------------4-2-4-2-4--4-4-4-----------------------------|
D |-----4-4------4-4-------------2-0-2-0-2--2-4-4-x3--------------------------|
A |-----2-2------2-2--------------------------2-2-----------------------------|
E |---------------------------------------------------------------------------| Feel
throwin in the towel...
More of this...
E |---------------------------------------------------------------------------|
B |-------------2-----4--2-------------2~-------------------------------------|
G |-4-----4-2-4-2-----4--2-2-4---4-2-4-2~-------------------------------------|
D |-4-----4-2-4-0-x2--2--0-2-4---4-2-4-0~-------------------------------------|
A |-2-----2-0-4------------0-2---2-0-2----------------------------------------|
E |---------------------------------------------------------------------------|
More... PM:..................
E |---------------------------------------------------------------------------|
B |----------------------------------4-2-4-2-4---4----------------------------|
G |--4-4----4-4----------------------4-2-4-2-4---4--4-4-----------------------|
D |--4-4----4-4----------------------2-0-2-0-2---2--4-4-x3--------------------|
A |--2-2----2-2-------------------------------------2-2-----------------------|
E |---------------------------------------------------------------------------|They'll
you round and round it's plain to see....
Then..
E |----------------------8-6--------------------------------------------------|
B |--------------------------6-4----------------------------------------------|
G |---2-2--4-4--------------------------x4-------4--2~------------------------|
D |---2-2--4-4-----------------------------------4--2~------------------------|
A |---0-0--2-2-----------------------------------2--0~------------------------|
E |---------------------------------------------------------------------------|
Then...
E |---------------------------------------------------------------------------|
B |--------------2-----4-2-------------2--------------------------------------|
G |----4---4-2-4-2-----4-2-2-4---4-2-4-2--------------------------------------|
D |----4---4-2-4-0-x2--2-0-2-4---4-2-4-0----x2--------------------------------|
A |----2---2-0-2-----------0-2---2-0-2----------------------------------------|
E |---------------------------------------------------------------------------| Get
and make it work

Back to... PM:..................
E |-----------------------------------------------------------------------------|
B |--------------------------4-2-4-2-4----4-------------------------------------|
G |----4-4---4-4-------------4-2-4-2-4----4-4-4---------------------------------|
D |----4-4---4-4-------------2-0-2-0-2----2-4-4---x3----------------------------|
A |----2-2---2-2----------------------------2-2---------------------------------|
E |-----------------------------------------------------------------------------|
You say love has got you down well thats bull...

Then more...
E |------------------------8-6------------------------------------------------|
B |---------------------------6-4---------------------------------------------|
G |----2-2-----4-4--------------------------4-4---2~--------------------------|
D |----2-2-----4-4--------------------------4-4---2~-x4-----------------------|
A |----0-0-----2-2--------------------------2-2---0~--------------------------|
E |---------------------------------------------------------------------------|
Then another chorus...
E |---------------------------------------------------------------------------|
B |------------2-------4-2-------------2--------------------------------------|
G |---4--4-2-4-2-------4-2-2-4---4-2-2-2--------------------------------------|
D |---4--4-2-4-0-x2----2-0-2-4---4-2-4-0-x2-----------------------------------|
A |---2--2-0-2-------------0-2---2-0-4----------------------------------------|
E |---------------------------------------------------------------------------|GET
and make it work...
Then a bridge before the solo
E |---------------------------------------------------------------------------|
B |----4-2-4-2----------------------------------------------------------------|
G |----4-2-4-2-2-------2~-----------------------------------------------------|
D |----2-0-2-0-2-x4----2~-----------------------------------------------------|
A |------------0-------0~-----------------------------------------------------|
E |---------------------------------------------------------------------------|

Ok, for the solo your on your own, i do know it involves lots of finger tapping and pick
stuff...see eddie play..make it up.

Then back to more......
E |---------------------------------------------------------------------------|
B |-------------2--------4-2-------------2------------------------------------|
G |--4---4-2-4--2--------4-2-2-4---4-2-4-2------------------------------------|
D |--4---4-2-4--0-x2-----2-0-2-4---4-2-4-0------------------------------------|
A |--2---2-0-2---------------0-2---2-0-2--------------------------------------|
E |---------------------------------------------------------------------------|

Then just another verse and chorus til the end

Hope you enjoy playin this song, its a good one. one of my favorites.


| / slide up
| slide down
| h hammer-on
| p pull-off
| ~ vibrato
| + harmonic
| x Mute note
| b Long String bend 1/2 Step

ACORDES PARA GUITARRA

PIANO UKELELE


COMENTARIOS

Aún no hay comentarios,

¡escribe el primero!

Escribe una pregunta, duda o comentario sobre esta canción, te responderemos a la brevedad.

Las más tocadas de Van Halen

Toca una Canción al Azar de Van Halen