I'm The One
Van Halen
Acordes

Subida por pumarcarmen
Álbum: Van Halen ( 1978)


Más Versiones
Ver. 2 Ver. 3
HERRAMIENTAS

Cambiar Cifrado
Americano Latino

Cambiar Tonalidad
-1 +1

Partir Pantalla Imprimir FAQ

Ver solo la LETRA

+A
-A
LETRA CON ACORDES

¿Tu Guitarra esta Afinada? PRUEBA NUESTRO NUEVO AFINADOR

introdução

e|------------------------
b------------------------
g--------------------5---
d-----7----5-----7---5---
a-0-0--0-0---0-0---0-----
E|------------------------

e|------------------------
b------------------------
g------------------------
d-----7----5-----7-------
a-0-0--0-0---0-0---0-3~--
E|------------------------

e|-----------------------------------------------------------------
b--------------------------5p0-------5p0--------------------------
g--------------------5p0-------7p5-------7p5--5p0-------5p0-------
d-----7----5-----7-------7---------7---------7----7p5-------7p5---
a-0-0--0-0---0-0---0----------------------------------7----------0
E|-----------------------------------------------------------------

e|------------------------
b------------------------
g--------------------5---
d-----7----5-----7---5---
a-0-0--0-0---0-0---0-----
E|------------------------

e|------------------------
b------------------------
g------------------------
d-----7----5-----7-------
a-0-0--0-0---0-0---0-3~--
E|------------------------

e|------------------------
b------------------------
g--------------------5---
d-----7----5-----7---5---
a-0-0--0-0---0-0---0-----
E|------------------------

        harmonicos
e|------------------------
b------------------------
g-------12-----7-5~~-----vibrato c/ alavanca
d----12------7-----------
a-12-------7-------------
E|------------------------

e|--------------------------------------------
b--------------------------------------------
g-8p7p5------------(5)-8p7p5----------------2
d-------7-7-5-5-7~-----------7-7-5-5-7-------
a--------------------------------------3h4---
E|--------------------------------------------
                 "pitch harmonic"
e|-----------------------------------
b-----------------------------------
g-8p7p5-----------7b-5--------------
d------7-7-5-5-7~------7-6-5--------
a----------------------------7-6-5-3
E|-----------------------------------

e|--------------------------------------------
b--------------------------------------------
g-8p7p5------------(5)-8p7p5----------------2
d-------7-7-5-5-7~-----------7-7-5-5-7-------
a--------------------------------------3h4---
E|--------------------------------------------

e|---------------------------------------------------------------16h19p17
b------------------------------------------------------16h17h19---------
g-8p7p5-------------------------------16h17---16h17h19------------------
d------7-7-5-5-7~------------16h17h19-------19--------------------------
a------------------/16h17h19--------------------------------------------
E|-----------------------------------------------------------------------

"We came here to entertain you..."

e|------------------------
b------------------------
g--------------------5---
d-----7----5-----7---5---
a-0-0--0-0---0-0---0-----
E|------------------------

e|------------------------
b------------------------
g------------------------
d-----7----5-----7-------
a-0-0--0-0---0-0---0-3~--
E|------------------------

e|------------------------
b------------------------
g--------------------5---
d-----7----5-----7---5---
a-0-0--0-0---0-0---0-----
E|------------------------

        harmonicos
e|------------------------
b----------------5~~-----vibrato c/ alavanca
g-------12-----7---------
d----12------7-----------
a-12-------7-------------
E|------------------------

"I´m the One..."

e|------------------------
b------------------------
g--------------------5---
d-----7----5-----7---5---
a-0-0--0-0---0-0---0-----
E|------------------------

e|------------------------
b------------------------
g------------------------
d-----7----5-----7-------
a-0-0--0-0---0-0---0-3~--
E|------------------------

e|-------------------------
b-------------------------
g--------------------5-0^-c/ alavanca
d-----7----5-----7---5----
a-0-0--0-0---0-0---0------
E|-------------------------

"I see a glow that fills this room"
                        
                        harmonicos
e|--------------------------------
b-------------------------7------
g-----------------------------7~- c/ alavanca
d-14-13-12-11-10-9-8-7--7---7----
a-12-11-10-9--8--7-6-5-----------
E|--------------------------------

"I see it rolling off of you"

e|--------------------------
b--------------------------
g--------------------------
d-14-13-12-11-10-9-8-7--X-
a-12-11-10-9--8--7-6-5--X- Palheta deslizando nas cordas
E|-----------------------X-

"And now your message from above"

e|---------------------------
b---------------------------
g---------------------------
d-16-15-14-13-12-11-10-9----
a-14-13-12-11-10-9--8--7----
E|------------------------0^- c/ alavanca

"I'm tellin you"      "Show,come on and show your love"                "ah yeah!"

e|----------------------------------------------------------------------11h14p12-
b-------------------------------------------------------------11h12h14----------
g-------------------------------------------11h12----11h12h14-------------------
d-16-15-14-13-12-11-9-5-7----------11h12h14-------14----------------------------
a-14-13-12-11-10-9--7-3-5-11h12h14----------------------------------------------
E|-------------------------------------------------------------------------------

"(Show your love)"

e|---------------------
b---------------------
g-5-7-9~-11~-12~-14~-- vibrtatos c/ alavanca
d-5-7-----------------
a-3-5-7~-9~--10~-12~--
E|---------------------

"(Show your love)"

e|------------------------------
b------------------------------
g-5-7----9---7---5---4---2
d-5-7--------------------------
a-3-5-11----9----7----5----3---
E|------------------------------

"(Show your)"

e|-----
b-----
g-5-7-
d-5-7-
a-3-5-
E|-----

"Show it"

1ºsolo:

e|-------------------------------------------------------------------
b-------------------------------------------------------------------
g-------------6h7---6h7h9-6h7----6h7h9-6h7---6h7h9-6h7--6-----------
d-------6h7h9-----9------------9-----------9----------9---9-7-6-----
a-6h7h9---------------------------------------------------------9-7~
E|-------------------------------------------------------------------
          
e|--------T---------T-------T----------T--------T--------T--------T--------T--------T------------------
b-10b12-12h7h10h7h12h7h10h7h12h6h9h6h12h6h9h6h12h5h8h5h12h5h8h5h12h4h7h4h12h4h7h4h12h4h7h4------T-----
g------------------------------------------------------------------------------------------6b7h12p7r6-
d-----------------------------------------------------------------------------------------------------
a-----------------------------------------------------------------------------------------------------
E|----------------------------------------------------------------------------------------------------

e|-10----12----13----15----------
b-13b15-15b17-16b18-18b20-22b24-
g-------------------------------
d-------------------------------
a-------------------------------
E|-------------------------------

e|-------10--------------------------------------------
b----------13-13b15-----------------------------------
g-12b14-------------11h12p11h12b-11h12b-11h12b-11h12b- bend junto c/ alavanca 
d-----------------------------------------------------
a-----------------------------------------------------
E|-----------------------------------------------------

e|-------10------------------------------------------
b----------13-13b15-------13b15---------------------
g-12b14-------------12-11-------12-11-10------------
d----------------------------------------12-10-10/12
a---------------------------------------------------
E|---------------------------------------------------

e|---------------------
b---------------------
g-(3)6p5p3------------
d----------5-5-3-3-5~-
a---------------------
E|---------------------

e|-------------------------
b-------------------------
g-(3)6p5p3---------------0
d----------5-5-3-3-5------
a--------------------1h2--
E|-------------------------

                     "pitch harmonic"
e|---------------------------------------
b---------------------------------------
g-(5)-8p7p5-----------7b-5--------------
d-----------7-7-5-5-7~-----7-6-5--------
a--------------------------------7-6-5-3
E|---------------------------------------

"Look at all these little kids..."

e|------------------------
b------------------------
g--------------------5---
d-----7----5-----7---5---
a-0-0--0-0---0-0---0-----
E|------------------------

e|------------------------
b------------------------
g------------------------
d-----7----5-----7-------
a-0-0--0-0---0-0---0-3~--
E|------------------------

e|---------------------------------------------------------------------
b----------------------20p17-20b22-20p17-20b22-20p17-20b22-20p17-20b22
g--------------------5------------------------------------------------
d-----7----5-----7---5------------------------------------------------
a-0-0--0-0---0-0---0--------------------------------------------------
E|---------------------------------------------------------------------

"I´m the one,the one you love..."

e|------------------------
b------------------------
g--------------------5---
d-----7----5-----7---5---
a-0-0--0-0---0-0---0-----
E|------------------------

e|------------------------
b------------------------
g------------------------
d-----7----5-----7-------
a-0-0--0-0---0-0---0-3~--
E|------------------------

e|-------------------------
b----------------------16b
g--------------------5-15b
d-----7----5-----7---5----
a-0-0--0-0---0-0---0------
E|-------------------------

"I see a glow that fills this room"
                        
                        harmonicos
e|--------------------------------
b-------------------------7------
g-----------------------------7~- c/ alavanca
d-14-13-12-11-10-9-8-7--7---7----
a-12-11-10-9--8--7-6-5-----------
E|--------------------------------

"I see it rolling off of you"

e|--------------------------
b--------------------------
g--------------------------
d-14-13-12-11-10-9-8-7--X-
a-12-11-10-9--8--7-6-5--X- Palheta deslizando nas cordas
E|-----------------------X-

"And now your message from above"

e|---------------------------
b---------------------------
g------------------------9b-
d-16-15-14-13-12-11-10-9----
a-14-13-12-11-10-9--8--7----
E|--------------------------- 

"I'm tellin you"      "Show, show your love babe"              "Ah yeah!"

e|----------------------------------15h17h19----------15h17h19-19p15----15----
b-------------------------15h17h19----------15h17h19----------------19----19b
g----------------------------------------------------------------------------
d-16-15-14-13-12-11-9-5-7----------------------------------------------------
a-14-13-12-11-10-9--7-3-5----------------------------------------------------
E|----------------------------------------------------------------------------

"(Show your love)"

e|-----9p7p5---5-9p7p5---5-9p7p5--------
b-----------9---------9---------9p7-7b-
g-5-7----------------------------------
d-5-7----------------------------------
a-3-5----------------------------------
E|--------------------------------------

"(Show your love)"

e|-----17-19b-19-17-15-17-15-17b-
b-------------------------------
g-5-7---------------------------
d-5-7---------------------------
a-3-5---------------------------
E|-------------------------------

    "Show me!"

e|-----
b-----
g-5-7-
d-5-7-
a-3-5-
E|-----

2º solo

e|-10b-----------0-----------0-----------0-----------0-----------0-----------0-----------0--------
b-----10p7p0------10p7p0------10p7p0------10p7p0------10p7p0------10p7p0------10p7p0-------------
g------------10----------10----------10----------10----------10----------10----------10---9b-7-9b
d------------------------------------------------------------------------------------------------
a------------------------------------------------------------------------------------------------
E|------------------------------------------------------------------------------------------------

e|-7-7-7-9-9-9-10-10-10-12-12-12-9h10h12-9h10h12-9h10h12-9h10h12-10h12h14-10h12h14-10h12h14-12-14-
b------------------------------------------------------------------------------------------------
g------------------------------------------------------------------------------------------------
d------------------------------------------------------------------------------------------------
a------------------------------------------------------------------------------------------------
E|------------------------------------------------------------------------------------------------

e------12----12----12-15p12h15-12----14p12----12------------------------------------------------------
b13h14---15b---15b---------------15-------15----15p14p12----15p12---12--------------------------------
g--------------------------------------------------------14-------14---15p14p12---14----12-14b-12-14b-
d------------------------------------------------------------------------------14----14---------------
a----------------------------------------------------------------------------------------------------
E-----------------------------------------------------------------------------------------------------

                                                          *Segurando o bend
e|----------15h17h19----------15h17h19-19p15----15-----17b-17-17-17-
b-15h17h19----------15h17h19----------------19----19b--------------
g------------------------------------------------------------------
d------------------------------------------------------------------
a------------------------------------------------------------------
E|------------------------------------------------------------------

e|--------------
b--------------
g--------------
d--------------
a-7-9-10-11-12-
E|--------------

"Whoo! Bop ba da, shoo-be doo-wah
Bop ba da, shoo-be doo-wah
(Ba dum bum)
Bop ba da, shoo-be do-wah
(shoo-be doo-be doo-be do-whum)
Bop ba da, shoo-be doo-be doo-be do-wah
Bop ba da, shoo-be doo-wah
(Bop ba da, shoo-be doo-be doo-be doo-whum)
Bop ba da, shoo-be doo-wah
(Bop ba da, shoo-be doo-be doo-be doo-whum)
Bop ba da, shoo-be doo-wah
(Ba dum bum)
Bop ba da, shoo-be doo-wah Whoo!"

e|--------------------------------------------------------------------------------------------
b--------------------------------------------------------------------------------------------
g-8p7p5---5-9p8p6---6-10p9p7---7-11p10p8----8-12p11p9----9-13p12p10----10-14p13p11----11-15~-
d-------7---------8----------9-----------10-----------11------------12-------------13--------
a--------------------------------------------------------------------------------------------
E|--------------------------------------------------------------------------------------------

"(Show your love)"
e|--------
b--------
g-5-7----
d-5-7----
a-3-5----
E|-----0^-c/ alavanca

"(Show your love)"
e|-----
b-------9---10--9---10--9-
g-5-7---9---9---9---9---9-
d-5-7---9---9---9---9---9-
a-3-5-7---7---7---7---7---
E|-------------------------

"(Show your love)"

e|---------------------
b---------------------
g-5-7-9~-11~-12~-14~-- vibrtatos c/ alavanca
d-5-7-----------------
a-3-5-7~-9~--10~-12~--
E|---------------------

"(Show               your)
e|-------------------------
b-------------------------
g-5------------------7----
d-5------------------7----
a-3------------------5----
E|-------------------------

3ºSolo (solo livre)
             / Varias                       vezes   
e|----12---------------------------------------------------------------------------
b-------15b-----------------------------------------------------------------------
g-13--------12-14-12-13-12-14-12-13-12-14-12-13-14----12--------------------------
d--------------------------------------------------14----14-12----12--------------
a--------------------------------------------------------------14----14-12--------
E|--------------------------------------------------------------------------15-12-

e|---------------
b------------7-
g-----9b^^^^-7-
d-----^------6-
a------------7-
E|--0^-----------////////////////// ¿Te Animas? Sube una canción a este sitio. //////////////////

ACORDES PARA GUITARRA

PIANO UKELELE


COMENTARIOS

Aún no hay comentarios,

¡escribe el primero!

Escribe una pregunta, duda o comentario sobre esta canción, te responderemos a la brevedad.

Las canciones más tocadas de Van Halen

Toca una Canción al Azar de Van Halen

09.49


Nuestro servidor se demoró 0.01 segundos en generar esta página. Eso fue realmente muy rápido!