Learning To See
Van Halen
Acordes

Subida por davidmenruz


Más Versiones
Ver. 2 Ver. 3 Ver. 4 Ver. 5 Ver. 6

Cambiar Cifrado
Americano Latino

Cambiar Tonalidad
-1 +1

Partir Pantalla Imprimir FAQ

+A
-A
Tuning: Drop D 1/2 Step (Db Ab Db Gb Bb eb)

Tabulature Legend:
h=hammer on
p=pull off
P.H.=pinch harmonics
/=slide up
=slide down
HARM.=harmonics

P.H.
[INTRO] |-----------|
E |------------------------------------------------------------------------|
B |--2--3-5----7h8p75--3h5p32----7--8-10-----17-19-20-20-----------------|
G |--2--2-2------------------------7----7---------------------12h14p1211--|
D |------------------------------------------------------------------------|
A |------------------------------------------------------------------------|
D |------------------------------------------------------------------------|

HARM.
|-------------|
E |-----------------------------------------------12-------|
B |--2--3---------------------------------------7----------|
G |--0--0-------1--2------------2-------------5------------|
D |-----------0----0--------------0---------5--------------|
A |-----------------------/17------4--5--7----------------|
D |--------------------------------------------------------|

E |------------------------------|-------------------|--------------------|
B |------------------------------|-------------------|--------------------|
G |------------------------------|-------------------|--------------------|
D |------------------------------|-------------------|--------------------|
A |--0-*-/0---0-3-5-7--10-7--3--|--0-3-5-7--10-7-3--|--0-3-5-7--10-7-3---|
D |--0--/-0---0-3-5-7--10-7--3--|--0-3-5-7--10-7-3--|--0-3-5-7--10-7-3---|
*=1 & 1/2 w/bar

E |-----------------|------------------|------------------|-----------------|
B |-----------------|------------------|------------------|-----------------|
G |-----------7-----|------------------|------------------|-----------------|
D |-----------7-----|------------------|------------------|-----------------|
A |--0-3-5-7--5--3--|-0-3-5-7--10-7--3-|-0-3-5-7--10-7-3--|-0-3-5-7--10-7-3-|
D |--0-3-5-7-----3--|-0-3-5-7--10-7--3-|-0-3-5-7--10-7-3--|-0-3-5-7--10-7-3-|

E |--------------------|
B |--------------------|
G |--------------------|
D |--------------------|
A |--0-----------------|
D |--0--6h7--0h3-------|


[VERSE] [Harm. throughout]
E |------------------------------------------------------------------------|
B |------------------------------12---------------------------12-----------|
G |----------------------------12---------------------------12-------------|
D |--------------------------12----------------------------------5---5-----|
A |---------------------------------------------------------------------5--|
D |------------------------------------------------------------------------|
|1.Time after time we've walked past the window and
|2.Tryin' to fol - low ev - ry footstep
E |------------------------------------------------------------------------|
B |--3--------------------------------3-----------------------------3------|
G |--0--------------------------------0-----------------------------0------|
D |--0--------------------------------0-----------------------------0------|
A |------------------------------------------------------------------------|
E |------------------------------------------------------------------------|


E |------------------------------------------------------------------------|
B |----------------------------------------------5---------------12--------|
G |--------------------------------------------5---5---5------------12-----|
D |--------------------------------------------------5-----------------12--|
A |-------------------------------------------------------5--7-------------|
E |------------------------------------------------------------------------|
|1.never see the ash - es on the ground
|2. I fell so lost on the way
E |------------------------------------------------------------------------|
B |-1------------------1------------3----------------------------3---------|
G |-2------------------0------------0------------------------------0-------|
D |-3------------------2------0h2---0--------------------------------0-----|
A |------------------------------------------------------------------------|
D |------------------------------------------------------------------------|

E |-------------------------------------------------------------------------|
B |------------------------------12----------------------------------12-----|
G |-------------------------------------12------------------------12--------|
D |---------------------------12-----12--------------------------------5----|
A |----------------------------------------------------------------------5-5|
D |-------------------------------------------------------------------------|
|1.Night after night watchin' the the sky move and
|2.Reading the scrip-ture straight from the gospel and
E |-------------------------------------------------------------------------|
B |--3-------------------------------------3---------------------------3----|
G |--0-------------------------------------0---------------------------0----|
D |--0-------------------------------------0---------------------------0----|
A |-------------------------------------------------------------------------|
D |-------------------------------------------------------------------------|


E |--------------------------------------------------|
B |--------------------------------------------------|
G |------------------5-------------------------------|
D |--------------------------------------------------|
A |-------------------------------5----7-------------|
D |---------------------------5------5---------------|
|1.never fell the earth spinning round
|2.never un - der-stand what they say
E |--------------------------------------------------|
B |--1--------------------1--------------3-----------|
G |--2--------------------0--------------0-----------|
D |--3--------------------2--------0h2---0-----------|
A |--------------------------------------------------|
D |--------------------------------------------------|



[CHORUS]
E |-------------------------------------------------------------------------|
B |-o-----------------5--3------------------------------8-8-8--6-6-6-6------|
G |-------------------3---------------------------------7-7-7--5-5-5-5------|
D |----------0-2h3----3----3---5---5-----7h8p75-------5-5-5--3-3-3-3------|
A |-o--0--0----------------------------0-----------5------------------------|
D |----0--0----------------------------0-----------5------------------------|
1. I didn't see you falling I couldn't hear you calling
2. I didn't see you falling I never heard you calling


E |--------------------------------------------------------------------|
B |-------------------------6-------------1--------------------2-------|
G |-------------------------7---7---------2--2-----------------2-------|
D |-------0-2h3-------------8-----8-------3----3---------------2-------|
A |--0-0--------------------8-------8-----3--------------------0-------|
D |--0-0---------------------------------------------------------------|
1. Although with eyes wide open, never learned to see.
2. I got my eyes wide open but havent learned to see.


E |----------------------------------------------------------------------|
B |-----------------5---3------------------------------------------------|
G |-----------------3----------------------------------------------------|
D |--------0-2h3----3-----3---5---5-----7h8p75------1-1-1-1--1-1-1-----|
A |--0--0----------------------------0-----------5----1-1-1-1--1-1-1-----|
D |--0--0----------------------------0-----------5----1-1-1-1--1-1-1-----|
I never meant to hurt you was there crying with you

P.H.
|-----|
E |----------------------------------------------------------------------||
B |-----------------8--------------------3-----------------------------o-||
G |-----------------9---9----------------4--4--4h7p4p0-------------------||
D |--------0-2h3----10-----10------------5-------------7/9----9-9-9-9----||
A |--0--0-----------10---------10--10---5--------------------9-9-9-9--o-||
D |--0--0-----------------------------------------------------9-9-9-9----||
Why do we harm the only thing we wanna be?

ACORDES PARA GUITARRA

PIANO UKELELE


COMENTARIOS

Aún no hay comentarios,

¡escribe el primero!

Escribe una pregunta, duda o comentario sobre esta canción, te responderemos a la brevedad.

Las más tocadas de Van Halen

Toca una Canción al Azar de Van Halen