Light Up The Sky
Van Halen
Acordes

Subida por paloma180277
Álbum: Van Halen II ( 1979)


Más Versiones
Ver. 2 Ver. 3 Ver. 4 Ver. 5 Ver. 6

Cambiar Cifrado
Americano Latino

Cambiar Tonalidad
-1 +1

Partir Pantalla Imprimir FAQ

+A
-A
Tune down 1/2 step

E |-----------------------------------------------------------------------
B |-----------------------------------------------------------------------
G |------4-----5-----6-----7-----8-----9-----10-----11------12------13----
D |---2-----3-----4-----5-----6-----7-----8------9------10------11--------
A |-----------------------------------------------------------------------
E |-----------------------------------------------------------------------

PS M M M

E |-----------------------------------------------------------------------
B |-----------------------------------------------------------------------
G |-------14------15--16-----x/------3--/--5-----3------------------------
D |---12------13---------------------3--/--5-----3--------------5---------
A |-----------------------------------------------------------------------
E |-------------------------------------------3-----3--3--3--3-----3------

M M M M M M . M M M M M M M

E |-----------------------------------------------------------------------
B |-----------------------------------------------------------------------
G |---------------------3--/--5-----3--2-----------------------3--/--5----
D |---------------------3--/--5-----3--2-----------------------3--/--5----
A |-----------------------------------------------------------------------
E |---3--3--3--3--3--------------3--------3--3--3--3--3--3--3-------------

M M M M M M M M M M M . M M

E |-----------------------------------------------------------------------
B |-----------------------------------------------------------------------
G |------3--------------------------------------3--/--5-----3--2----------
D |------3--------------5--5--------------------3--/--5-----3--2----------
A |-----------------------------------------------------------------------
E |---3-----3--3--3--3--------3--3--3--3--3--------------3--------3--3----

M M M M M M M M M M M M M M M M

E |-----------------------------------------------------------------------
B |-----------------------------------------------------------------------
G |-------------------5--/--7-----5---------------------------------------
D |-------------------5--/--7-----5--------------7------------------------
A |----------------------------------------------7------------------------
E |---3--3--3--3--3^-----------5-----5--5--5--5-----5--5--5--5--5--5------

M . M M M M M M M

E |-----------------------------------------------------------------------
B |------------------------------------------------------6--2--6--2-------
G |---5--/--7-----5--4-----------------------5--7--x--x--5--3--5--3-------
D |---5--/--7-----5--4-----------------------5--7--x--x--3--0--3--0-------
A |------------------------------------------------------3----------------
E |------------5--------5--5--5--5--5--5--5-------------------------------

ACORDES PARA GUITARRA

PIANO UKELELE


COMENTARIOS

Aún no hay comentarios,

¡escribe el primero!

Escribe una pregunta, duda o comentario sobre esta canción, te responderemos a la brevedad.

Las más tocadas de Van Halen

Toca una Canción al Azar de Van Halen