On Fire
Van Halen
Acordes

Subida por rockyariel1
Álbum: Van Halen ( 1978)


Más Versiones
Ver. 2 Ver. 3 Ver. 4 Ver. 5 Ver. 6

Cambiar Cifrado
Americano Latino

Cambiar Tonalidad
-1 +1

Partir Pantalla Imprimir FAQ

+A
-A
------2--------0--------3--------2----| 
------2--------0--------3--------2----|
---------------------5--------4-------| <- Crunch upon this four times.
---4--------5--------5--------4-------|
---4--------5-----0--3-----0--2-------|
0--2-----0--3-----------------------7|



--------------------------------------|
--------------------------------------| <- This is also done four times, with
--------------------------------------| slight variations.
--------------------------------------|
---------------------3-----0--2-------|
0--2--2--0--3--3--0-----------------7|

The next part is the solo.Get this down pat so that you can howl it into the
night as Ed does.

------------------------------------------------------------------------
------------------------------------------------------------------------
----------------------4h5p4-------------------------------5h7p5---------
---------------4h5h7---------7--6h7h9------------5--7--9-------h9-5h7h9-
4/7-----4h5h7-----------------------------5h7h9-------------------------
------------------------------------------------------------------------



------------------------------------------------------------------------
------------------------------------------------------------------------
-------------------------6h7p6-----6--------------------------8---------
----------------6--7--9---------9-----7h9-------------8h9h11------------
---------6h7h9--------------------------------7h9h11--------------------
------------------------------------------------------------------------



------------------------------------------------------------------------
------------------------------------------------------------------------
---------------------------------------9h10p9---------------------------
----------------------------9--10--12----------12--9--11--13------------
-------------------9h10h12----------------------------------------------
------11/15-------------------------------------------------------------



------------------------------------------------------------------------
------------------------------------------------------------------------
--------------------10h12p10------10------------------------------------
---------10--12--14------------14------12h14---------------12--14--16----
10h12h14---------------------------------------12h14h16-----------------
------------------------------------------------------------------------



------------------------------------------------------------------------
------------------------------------------------------------------------
12h14p12------12--14--16--12h16p12h16p12h16p12--------12---------------
----------16------------------------------------------------------------
------------------------------------------------------------------------
------------------------------------------------------------------------

ACORDES PARA GUITARRA

PIANO UKELELE


COMENTARIOS

Aún no hay comentarios,

¡escribe el primero!

Escribe una pregunta, duda o comentario sobre esta canción, te responderemos a la brevedad.

Las más tocadas de Van Halen

Toca una Canción al Azar de Van Halen