Pretty Woman
Van Halen
Acordes

Subida por isra


Más Versiones
Ver. 2 Ver. 3 Ver. 4 Ver. 5 Ver. 6

Cambiar Cifrado
Americano Latino

Cambiar Tonalidad
-1 +1

Partir Pantalla Imprimir FAQ

+A
-A


Ver solo la LETRA
(prelúdio)
E |-------------------------|1°
B |-------------------------|2°
G |-------------------------|3°
D |--------------0----------|4° (x2)
A |------------2------------|5°
E |--0-0-4------------------|6°

(intro)
E |-------------------------|1°
B |-------------------------|2°
G |-------------------------|3°
D |--------------0-4-2-0----|4° (x3)
A |------------2------------|5°
E |--0-0-4------------------|6°

A F#m
Pretty woman walking down the street
A F#m
Pretty woman the kind I'd like to meet
D
Pretty woman
E
I don't believe you, you're not the truth
No one could look as good as you (Mercy!)

(intro)

A F#m
Pretty woman won't you pardon me
A F#m
Pretty woman I couldn't help but see
D
Pretty woman
E
That you look lovely as can be
Are you lonely just like me (Rrrrowrr...)

(intro)

Dm G
Pretty woman stop a while
C Am
Pretty woman talk a while
Dm G C
Pretty woman give your smile to me
Dm G
Pretty woman, yeah yeah yeah
C Am
Pretty woman look my way
Dm G C A
Pretty woman say you'll stay with me
F#m Dm E
'Cause I need you I'll treat you right
A F#m Dm E
Come with me baby Be mine tonight

(intro)

A F#m
Pretty woman don't walk on by
A F#m
Pretty woman don't make me cry
D
Pretty woman
E
Don't walk away, hey
OK... if that's the way it must be, OK
I guess I'll go on home, it's late
There'll be tomorrow night, but wait

What do I see

D |-------------------------| x2
A |-------2--5---------------|
E |-0-0-4------------------|
...
Is she walking back to me

(intro)

D |-----------4-2--0--|-----------4-2-0---|
A |-------2--5--------|-------2--5--------|
E |-0-0-4-------------|-0-0-4-------------|
Oh, oh, pretty
A
woman

ACORDES PARA GUITARRA

PIANO UKELELE
A
F#m
D
E
Dm
G
C
Am


COMENTARIOS

Aún no hay comentarios,

¡escribe el primero!

Escribe una pregunta, duda o comentario sobre esta canción, te responderemos a la brevedad.

Las más tocadas de Van Halen

Toca una Canción al Azar de Van Halen
A
F#m
D
E
Dm
G
C
Am