Runaround
Van Halen
Acordes

Subida por Norge
Álbum: For Unlawful Carnal Knowledge ( 1991)



HERRAMIENTAS

Cambiar Cifrado
Americano Latino

Cambiar Tonalidad
-1 +1

Partir Pantalla Imprimir FAQ

Ver solo la LETRA

+A
-A
LETRA CON ACORDES

¿Tu Guitarra esta Afinada? PRUEBA NUESTRO NUEVO AFINADOR

|---||---------------0-|--------------|-----------------|------------------|
|---||-------------3---|-3------------|---------------3-|------------------|
|---||-----2-----2-----|---2----------|-----2-------0---|------------------|
|---||---2-----0-------|--------------|---2-------------|------------------|
|---||-0-----3---------|----------0-3-|-0-----3---------|------------------|
|-3-||-----------------|-----3~~~-----|---------3~------|------------------|

--------------|---------------0-|--------------|-------------3-|-----------|
1-0-----0-----|-------------3---|-3------------|-------------3-|-----------|
------2---2---|-----2-----2-----|---2----------|-----2-------0-|-----------|
----0---------|---2-----0-------|--------------|---2---------0-|-----------|
--------------|-0-----3---------|----------0-3-|-0-----3-------|-----------|
------------3-|-----------------|-----3~~~-----|---------3~----|-----------|

3-3-3-2---2-2-0-|------------|------------|------------|-------------------|
3-3-3-3---3-3-3-|-------15---|-------14---|-------13---|-------------------|
0-0-0-2---2-2-2-|----12------|----12------|----10------|-------------------|
0-0-0-0---0-0-0-|-14---------|-14---------|-12---------|-------------------|
----------------|------------|------------|------------|-------------------|
----------------|------------|------------|------------|-------------------|

-------------------|------------|------------|----------|------------------|
12-12-10h12-10-----|-------15---|-------14---|-------13-|------------------|
10-10-10----10-----|----12------|----12------|----10----|------------------|
10-10-10----10-----|-14---------|-14---------|-12-------|------------------|
-----------------0-|------------|------------|----------|------------------|
-------------------|------------|------------|----------|------------------|

--------------14---12-||----------|--------------|----------|------------|
12-12-12-10---12---12-||----------|--------------|----------|------------|
10-10-10-10---12--------||----------|--------------|----------|------------|
10-10-10-10-----------2-||-2--------|------------2-|-2--------|------------|
----------------------0-||-0--------|-----5------0-|-0--------|------------|
------------------------||------12|-2------2-----|------12|------------|
"She don't like it..." "And don't like..."


--------------|----------|--------------|---------------|------------------|
--------------|----------|--------------|-----------5-7-|------------------|
--------------|----------|--------------|-------5---5-7-|------------------|
----7-------2-|-2--------|------------2-|-2-2/7---7-----|------------------|
4------4~~~-0-|-0--------|-----5------0-|-0-0-----------|------------------|
--------------|------12|-2------2-----|---------------|------------------|
"She ain't about to give..."

b&r
---------------|------------|------------|----------|----------------------|
-7-------------|-------15---|-------14---|-------13-|----------------------|
-7------p5-----|----12------|----12------|----10----|----------------------|
-----------7-7-|-14---------|-14---------|-12-------|----------------------|
-------------0-|------------|------------|----------|----------------------|
---------------|------------|------------|----------|----------------------|

--------------14---12-||----------------|----------------|----------|----|
12-12-12-10---12---12-||----------------|----------------|----------|----|
10-10-10-10---12--------||--------2---x-x-|----------------|----------|----|
10-10-10-10-----------2-||-2------2---x-x-|--------------2-|-2--------|----|
----------------------0-||-0--3-------x-x-|-------5------0-|-0--------|----|
------------------------||----------------|-2--------2-----|------12|----|
"She can take me..."

--------------------|-------------|--------------|---------------|---------|
--------------------|-------------|--------------|-----------5-7-|---------|
--------------------|-------2-----|--------------|-------5---5-7-|---------|
-----7------------2-|-2-----2-----|------------2-|-2-2/7---7-----|---------|
4------4---4-4~~~-0-|-0-3-----x-x-|-----5------0-|-0-0-----------|---------|
--------------------|-------------|-2------2-----|---------------|---------|
"...drives me home..."

b&r p.m...
---------------||------------------|---------------------|-----------------|
-7-------------||--------5-----7---|-----10---9h10p9-----|-----------------|
-7------p5-----||------6-----------|-9---------------9---|-----------------|
-----------7-7-||----6-------7---9-|---9---------------9-|-----------------|
-------------0-||--4-------5-----7-|---------------------|-----------------|
---------------||----------------0-|---------------------|-----------------|
"I'd walk, but I want it..."

--------------------|-------------------|-----------------|----------------|
--------10-----7/10-|-9-----------------|-----------------|----------------|
-----11-------------|---9---------------|-----6-----------|----------------|
--11---------7------|-----9---7h9p76--|---6-------------|----------------|
9----------5--------|-----------------7-|-4----/7-5-5/9-7-|----------------|
-----------------0--|-------------------|---------------0-|----------------|
"what fool believes.." "I've got her in my sight..."

p.m...
--------------------|------------------|-------------||--------------------|
-----------------10-|--------3-2-------|-0-----------||--------------------|
--9-----------11----|------2-----2---1-|-2---1-------||--------------------|
9----------11-------|----2-----------2-|-2---2-------||--------------------|
---/11-9------------|--0-------------2-|-----2-------||--------------------|
--------------------|----------------0-|-----------3-||--------------------|
"But just out of..."


--------------0-|--------------|-----------------|---------------|---------|
------------3---|-3------------|---------------3-|-1-0-----0-----|---------|
----2-----2-----|---2----------|-----2-------0---|-------2---2---|---------|
--2-----0-------|--------------|---2-------------|-----0---------|---------|
0-----3---------|----------0-3-|-0-----3---------|---------------|---------|
----------------|-----3~~~-----|---------3-------|-------------3-|---------|
"Here we go around..."

--------------0-|--------------|-----------------|-------------||
------------3---|-3------------|---------------3-|-1-0-3---3---||
----2-----2-----|---2----------|-----2-------0---|-----2---2---||
--2-----0-------|--------------|---2-------------|-----0---0-2-||
0-----3---------|----------0-3-|-0-----3---------|-----------0-||
----------------|-----3~~~-----|---------3-------|-------------||

||----------|---------|---------|-------------|----------|---------|-------|
||-----10---|-----9---|-----8---|-7-7-5h7-5---|-----10---|-----9---|-------|
||---7------|---7-----|---5-----|-5-5-5---5---|---7------|---7-----|-------|
||-9--------|-9-------|-7-------|-5-5-5---5---|-9--------|-9-------|-------|
||----------|---------|---------|-------------|----------|---------|-------|
||----------|---------|---------|-----------0-|----------|---------|-------|
"oo. ah." "It goes like this"

--------------|-----9-----||--------|-----------------|--------------------|
----8-----7-7-|-7-5-7-7---||--------|-----------------|--------------------|
--5-------5-5-|-5-5-7-7---||--------|-----------------|--------------------|
7---------5-5-|-5-5-7-7---||--------|-----2---------2-|--------------------|
--------------|---------2-||--------|---------------2-|--------------------|
--------------|---------0-||--3-----|-4------4------0-|--------------------|
"Oh man it's..."

--------------------------|---9-9-9-7-|--------|-----------------|---------|
--0-3h5p3p0-5p3p0---------|---7-7-7-7-|--------|-----------------|---------|
------------------2h4p2p0-|---7-7-7-7-|--------|-----------------|---------|
--------------------------|-----------|--------|-----2---------2-|---------|
--------------------------|-----------|--------|---------------2-|---------|
--------------------------|-0---------|-0--3---|-4------4------0-|---------|
"And you make it harder..." "Fill me up..."


------------|-------------------------||
------------|-------------------------||
------------|-------------------------||
----------2-|-------------------------||
----2-4---2-|-------------------------||
3h4-------0-|-----------------------3-||////////////////// ¿Te Animas? Sube una canción a este sitio. //////////////////

ACORDES PARA GUITARRA

PIANO UKELELE


COMENTARIOS

Aún no hay comentarios,

¡escribe el primero!

Escribe una pregunta, duda o comentario sobre esta canción, te responderemos a la brevedad.

Las canciones más tocadas de Van Halen

Toca una Canción al Azar de Van Halen

18.48


Nuestro servidor se demoró 0.01 segundos en generar esta página. Eso fue realmente muy rápido!