So This Is Love
Van Halen
Acordes

Subida por elgrillo2020
Álbum: Fair Warning ( 1981)



HERRAMIENTAS

Cambiar Cifrado
Americano Latino

Cambiar Tonalidad
-1 +1

Partir Pantalla Imprimir FAQ

Ver solo la LETRA

+A
-A
LETRA CON ACORDES

¿Tu Guitarra esta Afinada? PRUEBA NUESTRO NUEVO AFINADOR

* - pickslide


part 1:

 clean...........................             distortion.................................
|--------------------------------|     |-------------------------------------------|
|--7-8--5~~---6--5---------------|     |-------------------------------------------|
|--7-7--5~~---5--5---4--2--2--2--| 2x  |-------------------------------------------|
|--------------------5--5--5--4--|     |--5-5-5-5-5-5-5-----7---4--*---------------|
|--------------------------------|     |--3-3-3-3-3-3-3--5--5---2--*--3----5----7--|
|--------------------------------|     |-----------------3---------*--1----3----5--|


this is what i do because it sounds fuller, but play
the same thing as the clean part if you dont like it
|-----------------------------------------------|
|--7-8-7--5-5~~--0-5-0-6--5-5--5-0--------------|
|--7-7-7--5-5~~--0-5-0-5--5-5--5-0--4--2--2--2--| 2x
|-----------------------------------5--5--5--4--|
|-----------------------------------------------|
|-----------------------------------------------|


repeat part 1, then the solo:

|------------------------------------------------------------|
|------------------------9b----------------------------------|
|--------------------7---9b-------9b-7----9^10^9-7-----------|
|---------------7-^9---9---------------9---------------------|
|--------5-7/-9----------------------------------------------|
|------------------------------------------------------------|

------10-----------------------------8^-10-^12-10-8----8-----------|
--------10--------*-------8^-10-^12-----------------12---13^12^10--|
----------11^10--10b-----------------------------------------------|
---------------12--------------------------------------------------|
-------------------------------------------------------------------|
-------------------------------------------------------------------|

-----------------------------------------------------------------|
-----------------------------------------------------------*-*-*-|
--12-10/9b-10-r9^8^7s7^8^9b10r9^8^7s7^8^9b10r9^8^7-9br7--7-9-9-7-|
-------------------------------------------------------9---------|
-----------------------------------------------------------------|
-----------------------------------------------------------------|

-----------------------------------------------------------------|
---9^10^13-9^10^9------------------------------------------------|
------------------12-12^10^9^10^9--------------------------------|
---------------------------------12^10^9-------------------------|
-----------------------------------------12^10^98~~-------------|
-----------------------------------------------------------------|

--------------------------------------------------------------------|
----------------------15br------------------------------------------|
-------x-10br-7--7--------12121212--12bh121212r(10)12-10br------10b-|
---7-9----------9-----------------------------------------1210------|
--------------------------------------------------------------------|
--------------------------------------------------------------------|

----------------------13------/13-/13b-/14--etc--|
-------------------13b--13b----------------------|
----------12br(10)-------------------------------|
--12-1210----------------------------------------|
-------------------------------------------------|
-------------------------------------------------|


part 2:

|-------------------------------------------|   |--------------------------------|
|-------------------------------------------|   |--7-8--5~~---6--5---------------|
|-------------------------------------------|   |--7-7--5~~---5--5---4--2--2--2--| 2x
|--5-5-5-5-5-5-5-----7---4--*---------------|   |--------------------5--5--5--4--|
|--3-3-3-3-3-3-3--5--5---2--*--3----5----7--|   |--------------------------------|
|-----------------3---------*--1----3----5--|   |--------------------------------|


after that the outro starts which i just improvise on because
its a bunch of noise until the end, which im not really sure
of except for the last two chords eddie hits, which are:

|-------|
|-------|
|--7-7--|
|--7-7--|
|--5-5--|
|-------|////////////////// ¿Te Animas? Sube una canción a este sitio. //////////////////

ACORDES PARA GUITARRA

PIANO UKELELE


COMENTARIOS

Aún no hay comentarios,

¡escribe el primero!

Escribe una pregunta, duda o comentario sobre esta canción, te responderemos a la brevedad.

Las canciones más tocadas de Van Halen

Toca una Canción al Azar de Van Halen

17.20


Nuestro servidor se demoró 0.01 segundos en generar esta página. Eso fue realmente muy rápido!