Up For Breakfast
Van Halen
Acordes

Subida por LOURDES



Cambiar Cifrado
Americano Latino

Cambiar Tonalidad
-1 +1

Partir Pantalla Imprimir FAQ

+A
-A


Ver solo la LETRA
Tuning: Standard (EADGBe)

Tabulature Legend:
h=hammer on
p=pull off
x=pick slide
b( )=fret note before the"b", then bend till it sounds like the note in ( )
=slide down
/=slide up
x=muted note

[INTRO]
E |---------------------------|------------------------------|
B |---------------------5-5---|------------0--5-5-5----------|
G |-------2-------------4-4---|-------2----0--4-3-2----------|
D |-------2-------------2-2---|-------2----0--2-2-2----2-----|
A |-------0-------------------|-------0----------------2-----|
E |--0h3--------0h3p0---------|--0h3-----------------3-0-----|

E |----------------------------------------------------------|
B |----------------------5-5---------------------------------|
G |-------2--------------4-4---------2-----------------------|
D |-------2--------------2-2---------2-----------------------|
A |-------0--x---------------------0---x-----------------|
E |--0h3-----x--0h3p0---------0h3------x---0h3p0---------|

E |----------------------------------------------------------------------||
B |--5--5--5-----5--5--5-----5--5--5-----5--5--5----3-3-3-3-3-3-3-3------||
G |--4--3--2-----4--3--2-----4--3--2-----4--3--2----2-2-2-2-2-2-2-2------||
D |--2--2--2-----2--2--2-----2--2--2-----2--2--2----0-0-0-0-0-0-0-0------||
A |----------------------------------------------------------------------||
E |-----------0-----------0-----------0----------------------------------||


[VERSE]
E |-----------------------------------------------------------------------|
B |-----------------------------------------------------------------------|
G |--9-----------------------------------9-9-----------------------------|
D |--9-----------------------------------9-9-----------------------------|
A |--7-----------------------------------7-7-----------------------------|
E |-----------3-----5----6---5------3p0----------3----5----6--5----3p0----| 1.she treat
per_son_al jesus______
2.I don't back door o__pen Yeah.

E |------------------------------------------------------------------------|
B |------------------------------------------------------------------------|
G |------------------------------------------------------------------------|
D |------------------------------------------------------------------------|
A |--------------------------------------------------------------7h10------|
E |----3----5---6--5------3h5p3----6p5--3---0----0---0---0--7h10------7h10-|
1.Got hand rest gonna heal ya______ Uh.
2.loos-en baby's soakin'________ I've been

E |-------------------------------------------------------------------------|
B |-------------------------------------------------------------------------|
G |--9------------------------------------9--9-----------------------------|
D |--9------------------------------------9--9-----------------------------|
A |--7------------------------------------7--7-----------------------------|
E |---------3-----5-----6--5-------3p0---------------3---5----6--5-----3p0--|
1. Got finger it rite on the trigger Well,
2. I been sip - pin'

HARM.|--------|
E |-----------------------------------------------------------7---12---|
B |--------------------------------------------------------------------|
G |-------------------------------------------------------2------------|
D |-----------------------------------------------------2--------------|
A |-----------------------------------------------2---0----------------|
E |----3----5----6--5----3--5p3---6p5--0-----0-------------------------|
1.pump pump itup baby bigger______.
2.Slip slippin'got me drippin'__. Well,I'm cra-zy.

E |---------------------------------------------------------------------|
B |--------3--2----0--------------------------------6----5---3----------|
G |------2-------------2----0-----------------------------------5p3-----|
D |----2-------------------------4----2-----------5----5----------------|
A |--0------------------------------------------3-----------------------|
E |---------------------------------------------------------------------|
1. (Pump-in it pump-in'it up)
2. (Keep-in it pump-in'it up)


E |----------------------------------------------------------|
B |----------------------------------------------------------|
G |--2--3p2p0--0--------------------------------4---x-x-4p3--|
D |-----------------------------------------4---2---x-x-2----|
A |--------------------------------------4-------------------|
E |------------------/9------2-----4/6----------------------|

E |---------------------------------------------------------------------||
B |----------------3------3-------------4-----5h4-----------------------||
G |----------------2---2--2---2-------4----4-------4--4-----------------||
D |-------------4--0---2--0---2---2h4--------------4--4-----------------||
A |-----------4--------0------0-----------------------------------------||
E |--2----4/6-----------------------------------------------0h3p0-------||
Sheput the


E |-------------------------------------------------------------------------|
B |------------------------------------5-5--5---5---------------------------|
G |--4--3--2---x--0----x--2---x--------4-4--3---2--x--0---------------------|
D |--2--2--2---x--0----x--2---x--------2-2--2---2--x--0---------------------|
A |-------------------------------------------------------------------------|
E |------------------------------0h3-------------------2b(3)-2b(3)r2p0-3p0--|
1. cream in my coff-ee (First in morning) Spread that


This part's a pain. Just play D5 (x 5 7 7 x x)
E |----------------------------------------------------------------------|
B |--5-5--5---5-----------------7---x--5/7--7-7-7-x--7---5--5------------|
G |--4-4--3---2--------2------------x-------------x----------------------|
D |--2-2--2---2--------2---5/7------x--5/7--7-7-7-x--7---7--7------------|
A |--------------------0-------------------------------------------------|
E |---------------3--------------------------------------------0h3p0-----|
1. but-ter on my biscuits (Honey dew my melon)


E |-------------------------------------------------------------------------|
B |--------------------------------------5--5--5--5-------------------------|
G |--4--3--2------------2----------------4--4--3--2--x--0-------------------|
D |--2--2--2------------2---x------------2--2--2--2--x--0-------------------|
A |-------------------------x-----------------------------------------------|
E |------------x-3-------------0h3p0----------------------2b(3)-2(3)r0-3p0--|
1.Cheries on bananas. need a second helping You know
2.Berries on bananas. Thats why

E |----------------------------------------------------------------||
B |--5-5--5-5------------------------------------------------------||
G |--4-4--3-2---------2---------7-7-----7--------------------------||
D |--2-2--2-2--x------2---------7-7-----7-------7----7-7p5-7-7-----||
A |------------x------0---7h10-------10----10p7-7----7-7p5-7-7-----||
E |---------------3------------------------------------------------||
1. I'm up for breakfast early in the morning.

ACORDES PARA GUITARRA

PIANO UKELELE
D5


COMENTARIOS

Aún no hay comentarios,

¡escribe el primero!

Escribe una pregunta, duda o comentario sobre esta canción, te responderemos a la brevedad.

Las más tocadas de Van Halen

Toca una Canción al Azar de Van Halen
D5