Where Have All The Good Times Gone
Van Halen
Acordes

Subida por joefra
Álbum: Diver Down ( 1982)


Más Versiones

Cambiar Cifrado
Americano Latino

Cambiar Tonalidad
-1 +1

Partir Pantalla Imprimir FAQ

+A
-A


Ver solo la LETRA
Van Halen
Where Have All the Good Times Gone!
from Diver Down

/ slide up
slide down
~ vibrato or whammy
x harmonic

Standard tuning

Intro
E |------------------------------------------------|
B |--9---9-7~----/9---9-7~----/9---9-7~----8/98~--|
G |--9-9-9-7~----/9-9-9-7~----/9-9-9-7~----8/98~--|
D |--9-9---7~----/9-9---7~----/9-9---7~----8/98~--|
A |------------------------------------------------|
E |------------------------------------------------|

Play this through each verse and chorus
E |----------------------------|
B |----------------------------|
G |----------------------------|
D |----------------------------|
A |--7/9--9-97--7-7/9--9-97--|
E |--5/7--7-75--5-5/7--7-75--|

Bridge
E |----------------------------------0-0-------2----0---|
B |--------------------------5------0--2--------2----0--|
G |-------------------9---96--6--------2----------------|
D |-------------------9---96---6--4----2----------------|
A |--0h2-2/5-5/7-7/9--7---74-----2-----0-----4----------|
E |------------------------------------------2----2-----|


This is the cool lead fill at the end of each bridge: (sort of)
E |-------------------|
B |-------------------|
G |--7b9--------------|
D |------9-7----------|
A |----------9-8-7-5--|
E |-------------------|


Solo:
E |--------------------------------------------------------------|
B |--------------------------------------------------------------|
G |----4b5r4-9b11r9~--9-7h9r7h9r7h9r7h9r7h9r7h9r7-9-7-6---x--0~--|whammy dive
D |-------------------9---------------------------9-7-6--x-------|on the 0
A |--2----------------7---------------------------7-5-4----------|
E |--------------------------------------------------------------|

E |----------------------------------------------|
B |----------------------------------------------|
G |---9-7h9r7h9r7h9r7h9r7h9r7h9r7-9-7-6---x~-----|
D |---9---------------------------9-7-6--x-------|
A |---7---------------------------7-5-4----------|
E |----------------------------------------------|

ACORDES PARA GUITARRA

PIANO UKELELE


COMENTARIOS

Aún no hay comentarios,

¡escribe el primero!

Escribe una pregunta, duda o comentario sobre esta canción, te responderemos a la brevedad.

Las más tocadas de Van Halen

Toca una Canción al Azar de Van Halen