Without You
Van Halen
Acordes

Subida por angelRicardo
Álbum: Van Halen III ( 1998)



HERRAMIENTAS

Cambiar Cifrado
Americano Latino

Cambiar Tonalidad
-1 +1

Partir Pantalla Imprimir FAQ

Ver solo la LETRA

+A
-A
LETRA CON ACORDES

¿Tu Guitarra esta Afinada? PRUEBA NUESTRO NUEVO AFINADOR

Verse:
G---------------
D---------------
A-0-0-3-0-0-5-3-
E---------------
This part comes at the end of the verse:
G---------
D-0-0-----
A-----0-0-
E---------
Pre-Chorus:
G-----------------
D-----------------
A-2-2-2-2-0-0-0-0-
E-----------------
 "and maybe theres a way..."
G-------------
D-------------
A-------------
E-2-2-2-3-3-3-
Chorus:
G-----------------
D-0-0-----0-0-----
A-----0-0---------
E-------------0-0-
Solo-Bridge:
G-----
D---2-
A-3---
E-----
This part is after the solo where Eddie plays some mutes when everything
else stops.
G-------------
D-------------
A-------0-0-0-
E-3-3-3-------
Ending Part:
G-------------------------
D-----------------0-0-0-0-
A-0-0-0-0-----------------
E---------3-3-3-3---------////////////////// ¿Te Animas? Sube una canción a este sitio. //////////////////

ACORDES PARA GUITARRA

PIANO UKELELE


COMENTARIOS

Aún no hay comentarios,

¡escribe el primero!

Escribe una pregunta, duda o comentario sobre esta canción, te responderemos a la brevedad.

Las canciones más tocadas de Van Halen

Toca una Canción al Azar de Van Halen

00.55


Nuestro servidor se demoró 0.48 segundos en generar esta página. Que velocidad!