Women In Love
Van Halen
Acordes

Subida por Permar
Álbum: Van Halen II ( 1979)



Cambiar Cifrado
Americano Latino

Cambiar Tonalidad
-1 +1

Partir Pantalla Imprimir FAQ

+A
-A
E |-----------------------------------------------------------------------|
B |-----------------------------------------------------------------------|
G |------4--1/2h4--2--2h4p2--2--2h4p2-------------------------------------|
D |------x---------x--x------x--x-----------------------------------------|
A |------5---------4--4------3--3------2---/7--5h7p5h7p5h7p54h5p4h5------|
E |------------------------------------0----------------------------------|

E |-----------------------------------------------------------------------|
B |-----------------------------------------------------------------------|
G |----------------4--1/2h4--2--2h4p2--2--2h4p2---------------------------|
D |----------------x---------x--x------x--x-------------------------------|
A |---p4h5p42-----5---------4--4------3--3------2---/7--5~~~-------------|
E |----------------------------------------------0------------------------|


Let Ring
E |------0-----0-----0--------0-----0--------0-----0-----0--------0-------|
B |------5--3-----3-----3--3-----3-----3-----5--3-----3-----3--3-----3----|
G |------x--x--------------x--------------2--x--x--------------x----------|
D |------5--4--------------3--------------2--5--4--------------3----------|
A |---------------------------------------0-------------------------------|
E |-----------------------------------------------------------------------|


Let Ring Let Ring
E |---0--------|----------------4-----------------------------------------|
B |------3-----|-------------5-----10--9-------------5--8--7--------------|
G |---------2--|----------4--------9---9----------4-----7--7--------------|
D |---------2--|-----4h6-----------7---9--2--4/6--------5--7--------------|
A |---------0--|----------------------------------------------------------|
E |------------|----------------------------------------------------------|

ACORDES PARA GUITARRA

PIANO UKELELE


COMENTARIOS

Aún no hay comentarios,

¡escribe el primero!

Escribe una pregunta, duda o comentario sobre esta canción, te responderemos a la brevedad.

Las más tocadas de Van Halen

Toca una Canción al Azar de Van Halen