You´re No Good
Van Halen
Acordes

Subida por rayegarcia
Álbum: Van Halen II ( 1979)


Más Versiones

Cambiar Cifrado
Americano Latino

Cambiar Tonalidad
-1 +1

Partir Pantalla Imprimir FAQ

+A
-A
first the intro.


---------------------------------------|
-13--------12----------7---------------|
-14--------12----------7-----5--------|
-14--------12----------7-----5--------|
--0------------------------------------|
---------------------------------------|
^swell w/volume control

now that thing that repeats during the verses.

-------------------------------------------------|
---------------------------------------^---------|
---------5-----7---------------------7-8-7-5-----|
---------5-----7------5-------5------7-8-7-5-----|
--5--7---5--xx-5------5--7----5--x-x-------------|
--5--5----------------5--5-----------------------|


repeat,improvise on it,im sure ed didnt play it exactly the same way
every time,you shouldnt either.anywayz.the pre-chorus

-------------------------3-----------------------------------------------|
-------------------------3----------------5-------------------------0----|
10-------------7--------------------------5----------------------2-------|
10-----^-----9----9-----------------------5-------------------2----------|
-8----8-10----------8---------------------3------3--2--1---0-------------|
-------------------------------------------------------------------------|
(i learned my lesson baby, And it left a scar.) (But now i..

---------0--------------------|
-------3----------------------|
-----2------------------------|
---0----------2--2--2---------|
--------------2--2--2---------|
--------------0--0--0--------|
(really are.)

Chorus.

(full) (full)
--/---/---/----------------------/--/-------------------------------------|
--20--20--20--------------------20--20------------------------------------|
----------------------5--7---------------5-7--5-(7-8-7-5)-------5--7------|
----------------------5--7---------------5-7----(7-8-7-5)-------5--7------|
-------------------0----------------------------------------0-------------|
--------------------------------------------------------------------------|
YA NO GOOD!

t p full----------------------------------|
---------full-----------------------/----t---------------------------------|
--------/-------/-------^---------/---------------^------------------------|
------7------------12------7-------------10---10-----7---------------------|
---------------------------------------------------------------------------|
----------------------------------------------------------------------------|
----------------------------------------------------------------------------|
Ooh, yeah


now the solo.

a.h.(full)------ reverse
rake *
------------------->---------------------------------------------------------|
--7--------------------------------------------------------------------------|
--7----------------------5---5------(0)----(--------------------------------)|
----------------------7----------7----(0)--(4-2--0-4-2--0-4-2--0-4-2--0-2-0-)|
----------------------------------------(0)(--------------------------------)|
-----------------------------------------------------------------------------|
*Glide up and down D stg. w/side
of right hand (lightly touching
it) while hammering on and pull-
ing off with left hand,sound ran-
dom harmonics and muted notes.
(full,bring back down)
-----------------------------------------------------------------------|
-----------------------------------------------------------------------|
--7-----------x--------5--5--------------------------------------------|
--------------x--x--7--------7--(7-0-5)-(7-3-0)------------------------|
-------------------------------------------------5--(7-3)--------------|
-----------------------------------------------/---------(5-3)-0---7---|
/ / sl.

----------------------------------------------------------------------------|
----------------------------------------(13-8)-(13-8-5-8)-(15-8)-(15-8-5-8)-|
---------------------(12-5-7)-(12-5-8)--------------------------------------|
-----------(12-5-7)---------------------------------------------------------|
--(12-5-7)------------------------------------------------------------------|
----------------------------------------------------------------------------|

------------------------------------------------------------------------------|
-(13-8)-(13-8-5-8)-(12-8)-(12-8-5-8)-(13-8)-(13------8-5-8)-(12-8)-(12-8-5-8)-|
------------------------------------------------------------------------------|
------------------------------------------------------------------------------|
------------------------------------------------------------------------------|
------------------------------------------------------------------------------|
full t
-----/-full-----------sl.--------------------/-----------------t----------|
--12--------(12-8)---13------------/--------/----------------------(full)-|
---------------------------------7----------------12---(12-10)--15---------|
---------------------------------------------------------------------------|
-----------------------------0---------------------------------------------|
---------------------------------------------------------------------------|


Outro
*(full)
-------------------------------------------------------------------------|
--------------0------------12---13----15---------------------------------|
--------------0----5-----[*14---15----17]--------------------------------|
--2-(0-2-0)---0----5--2--------------------------------------------------|
--0-------------------0--------------------------------------------------|
--------------3----------------------------------------------------------|

ACORDES PARA GUITARRA

PIANO UKELELE
D


COMENTARIOS

Aún no hay comentarios,

¡escribe el primero!

Escribe una pregunta, duda o comentario sobre esta canción, te responderemos a la brevedad.

Las más tocadas de Van Halen

Toca una Canción al Azar de Van Halen
D