Alma Fría
Viento en contra
Acordes

Subida por Valery



Otras Versiones
Ver. 2

Cambiar Cifrado
Americano Latino

Cambiar Tonalidad
-1 +1

Partir Pantalla Imprimir FAQ

+A
-A
LETRA CON ACORDES
Aki estoy otra vez, año nuevo, metas nuevas y descepciones
nuevas, Colochita, yo se ke te gusta mucho la guitarra
también Viento, asi ke supongo ke ya abras visto esta tab
asi ke te la dedico

CANCIóN: Alma Fría.
GRUPO : VientO en Contra.
AFINCACIóN de guitarra: 1/2 Tono bajada.

S= slide



Empieza con el bajo:

3x
1||----------------------------||----------------------------||
2||*--------------------------*||----------------------------||
3||*--3--3--3--3--3--3--3--3--*||--3s-7-7--7--7--7--7--7--7--||
4||----------------------------||----------------------------||




*Los nombres de los acordes se los pongo asi como guía,
y no es ke deban sonar como deben ya ke l
a guitarra esta 1/2 bajo*****



Guitarra acustica:

Y si el amor es tán bueno por ke duele? (Y empieza)

1||--3----------3--3--3--|--3----------0--0--0--||
2||--3----------3--3--3--|--3----------0--0--1--||
3||--0----------0--0--0--|--0----------0--0--0--||
4||--0----------0--0--0--|--0----------2--2--2--||
5||--2----------3--3--2--|--2----------2--2--3--||
6||--3----------0--0--0--|--3----------0--0--0--||
G G E


y se me eriza hasta la vida al decir tu
1||--0----------------0--0--0--|--0-------------0--0--3--|
2||--1----------------1--1--0--|--0-------------0--0--3--|
3||--0----------------0--0--0--|--0-------------0--0--0--|
4||--2----------------2--2--2--|--2-------------2--2--0--|
5||--3----------------3--3--2--|--2-------------2--2--2--|
6||--0----------------0--0--0--|--0-------------0--0--3--|
C E

1|--3----------3--3--3--|--3----------0--0--1--||
2|--3----------3--3--3--|--3----------0--0--3--||
3|--0----------0--0--0--|--0----------0--0--2--||
4|--0----------0--0--0--|--0----------2--2--0--||
5|--2----------3--3--2--|--2----------2--2--0--||
6|--3-------------------|--3-------------------||
G G Dm



Dm C G Dm C G
Nado en tu pecho, nado en el vacio, Nado en tu pecho,
Nado en el vacío de tu alma fría.



*****Despues de decir ´´NADO EN TU PECHO´´ se escucha una
guitarrita electrica haciendo esto:*****

1||-----------------------||
2||-----------------------||
3||-----------------------||
4||--------------------5--||
5||---------------3s-5----||
6||-----------------------||



***Ahora con la acustica toca esto (bueno, yo asi lo oigo)*****



1||---1------1s--3--3--3s-1-1--|--0------1s--3--3--3s-1-1--|
2||---3------3s--5--5--5s-3-3--|--1------3s--5--5--5s-3-3--|
3||*---------------------------|---------------------------|
4||*---------------------------|---------------------------|
5||----------------------------|---------------------------|
6||----------------------------|---------------------------|


1|--0------0------1----|--0------0------0-----||
2|--0------1------3----|--0------1------0-----||
3|---------------------|---------------------*||
4|---------------------|---------------------*||
5|---------------------|----------------------||
6|---------------------|----------------------||



*****Ahora con las otras estrofas te vas igual, hasta llegar
a esto de arriba otra vez y despues va:*****



Em A D G
Con dos palabras curas todo y por ke no?

Em A D G
El tiempo sigue y facil kema como el sol



*****Ahora pancho vocaliza y tocas los
meeeesmos acordes para despues: *****



C E G
Y si sí ke putas y si no tambien
(Asi dice en mi disco edicion especial... son pajas muchá, así no dice)

C E G
Y mi cuerpo ke aki respira tu nombre


Dm C G Dm C G
Nado en tu pecho, nado en el vacio, Nado en tu pecho,
Nado en el vacío


Dm Am G
Lento, muero lento, muero X 3

Dm Am
Lento, oh


*****Despues haces 6 compases de Sol y
para finalizar G Am G*****

ESTO ES TODO, UN SALUDO DESDE XELA


ACORDES PARA GUITARRA

PIANO UKELELE
G
E
C
Dm
Em
A
D
Am



COMENTARIOS

Aún no hay comentarios,

¡escribe el primero!

Escribe un comentario o pregunta sobre esta canción


TOP 20: Las más tocadas de Viento en contra

Ver más

Toca una Canción al Azar de Viento en contra
G
E
C
Dm
Em
A
D
Am

Nuestro servidor se demoró 0.03 segundos en generar esta página. Eso fue realmente muy rápido!