Mañana Seca
Viento en contra
Acordes

Subida por claraaribes



Otras Versiones
Ver. 2

Cambiar Cifrado
Americano Latino

Cambiar Tonalidad
-1 +1

Partir Pantalla Imprimir FAQ

+A
-A
LETRA CON ACORDES
Ésta es otra de las buenas rolas de viento en contra 100% chapin, apoyemos
lo nacional, ahi les van los acordes, creo que estos son los correctos...
éxitos y espero que les salga de poca madre... arriba viento en contra!

Cm G A# F
Se termina y el frio entra en mi sol
Cm G A# F
Se termina y que vida me queda de hoy
Cm G A# F
El vacio en mis ojos que no te ven

G#
Es imposible
A#
Es imposible que

D# A#
Es una mañana seca
F
Que me hacen falta tus besos
G#m D#
Y tu calor en mi cama
G#m D#
Y tu calor en mi cama, oh no [x2]

Cm G# A# F
De que me sirven las ganas si no estas tu
Cm G# A# F
De que me sirve mi dia cuentame tu
Cm G# A# F
El vacio en mis ojos que no te ven

G#
Es imposible
A#
Es imposible que...

Coro
D# A#
Es una mañana seca
F
Que me hacen falta tus besos
G#m D#
Y tu calor en mi cama
G#m D#
Y tu calor en mi cama, oh no [x2]

Solo:

E-3-----3-----4-----4-----4-4-7-----7-----6-----6-----6---6-
B-4-4-4-4-4-4-4-4-4-4-4-4-4-4-4-4-4-4-4-4-4-4-4-4-4-4-4-4-4-
G-----------------------------------------------------------
D-----------------------------------------------------------
A-----------------------------------------------------------
E----------------------------------------------------------- x3

E-3-----3-----4-----4-----4-4-7-----7-----11~
B-4-4-4-4-4-4-4-4-4-4-4-4-4-4-4-4-4-4-4-4-8~
G-------------------------------------------
D-------------------------------------------
A-------------------------------------------
E-------------------------------------------

G#
Es imposible
A#
Es imposible que ...

Coro
D# A#
Es una mañana seca
F
Que me hacen falta tus besos
G#m D#
Y tu calor en mi cama
G#m D#
Y tu calor en mi cama, oh no [x2]


Coro
D# A#
Es una mañana seca
F
Que me hacen falta tus besos

G#m D#
Y tu calor en mi cama
G#m D#
Y tu calor en mi cama (x4)


ACORDES PARA GUITARRA

PIANO UKELELE
Cm
G
A#
F
G#
D#
G#m



COMENTARIOS

Aún no hay comentarios,

¡escribe el primero!

Escribe un comentario o pregunta sobre esta canción


TOP 20: Las más tocadas de Viento en contra

Ver más

Toca una Canción al Azar de Viento en contra
Cm
G
A#
F
G#
D#
G#m

Nuestro servidor se demoró 0.02 segundos en generar esta página. Eso fue realmente muy rápido!