Cuando Estoy Tan Solo
Viento en contra
Acordes

Subida por joez16



Otras Versiones
Ver. 2 Ver. 3

ENTRENA TU OÍDO MUSICAL CON ESTE JUEGO. ¿QUÉ ACORDE ES?. CLIC AQUÍ PARA JUGAR

Cambiar Cifrado
Americano Latino

Cambiar Tonalidad
-1 +1

Partir Pantalla Imprimir FAQ

+A
-A
LETRA CON ACORDES
Esta es de mis primeras tablaturas, espero que esté correcta y que les sirva
en verdad para tocar está excelente canción.
Como siempre, dedicada para la P. d P. ahí sí que con todo el sentimiento...

Intro: Puede acompañarse con un rasgado suave con los acordes que se indican al
principio de cada línea. Tip: También son los que se deben mantener durante
el arpegio.

DO y DO/RE
E ||--------------------------|--------------------------|--------------------------||
B ||--------1-----3--1-----1--|--------1-----3--1-----1--|--------1-----3--1-----1--||
G ||-----0-----0--------0-----|-----0-----0--------0-----|-----0-----0--------0-----||
D ||--------------------------|--------------------------|--------------------------||
A ||--3-----------------------|--3-----------------------|--3-----------------------||
E ||--------------------------|--------------------------|--------------------------||



DO y DO/RE
E ||--------------------------|--------------------------|--------------------------||
B ||--------1-----3--1-----1--|--------1-----3--1-----1--|--------1-----3--1-----1--||
G ||-----0-----0--------0-----|-----0-----0--------0-----|-----0-----0--------0-----||
D ||--------------------------|--------------------------|--------------------------||
A ||--3-----------------------|--3-----------------------|--3-----------------------||
E ||--------------------------|--------------------------|--------------------------||
Dime dónde estás que ya no te

FA
E ||--------------1------------|--------------1-----------||
B ||--------1--------1-----1---|--------1--------1-----1--||
G ||-----2-----2--------2------|-----2-----2--------2-----||
D ||---------------------------|--------------------------||
A ||--3------------------------|--3-----------------------||
E ||---------------------------|--------------------------||
encuentro Dime lo que

LAm DO y DO/RE
E ||--------------0-----------|--------------1-----------|--------------------------||
B ||--------1--------1-----1--|--------1--------1-----1--|--------1-----3--1-----1--||
G ||-----2-----2--------2-----|-----2-----2--------2-----|-----0-----0--------0-----||
D ||--------------------------|--------------------------|--------------------------||
A ||--0-----------------------|--0-----------------------|--3-----------------------||
E ||--------------------------|--------------------------|--------------------------||
siento locura quizás

DO y DO/RE
E ||--------------------------|--------------------------|--------------------------||
B ||--------1-----3--1-----1--|--------1-----3--1-----1--|--------1-----3--1-----1--||
G ||-----0-----0--------0-----|-----0-----0--------0-----|-----0-----0--------0-----||
D ||--------------------------|--------------------------|--------------------------||
A ||--3-----------------------|--3-----------------------|--3-----------------------||
E ||--------------------------|--------------------------|--------------------------||
La lluvia inventará el ambiente

FA
E ||--------------1------------|--------------1-----------||
B ||--------1--------1-----1---|--------1--------1-----1--||
G ||-----2-----2--------2------|-----2-----2--------2-----||
D ||---------------------------|--------------------------||
A ||--3------------------------|--3-----------------------||
E ||---------------------------|--------------------------||
perfecto Contigo y mi

LAm DO y DO/RE
E ||--------------0-----------|--------------1-----------|--------------------------||
B ||--------1--------1-----1--|--------1--------1-----1--|--------1-----3--1-----1--||
G ||-----2-----2--------2-----|-----2-----2--------2-----|-----0-----0--------0-----||
D ||--------------------------|--------------------------|--------------------------||
A ||--0-----------------------|--0-----------------------|--3-----------------------||
E ||--------------------------|--------------------------|--------------------------||
silencio en mi cabeza

DO y DO/RE
E ||--------------------------|--------------------------|--------------------------||
B ||--------1-----3--1-----1--|--------1-----3--1-----1--|--------1-----3--1-----1--||
G ||-----0-----0--------0-----|-----0-----0--------0-----|-----0-----0--------0-----||
D ||--------------------------|--------------------------|--------------------------||
A ||--3-----------------------|--3-----------------------|--3-----------------------||
E ||--------------------------|--------------------------|--------------------------||
ya no sirve nada

FA
E ||--------------1------------|--------------1-----------||
B ||--------1--------1-----1---|--------1--------1-----1--||
G ||-----2-----2--------2------|-----2-----2--------2-----||
D ||---------------------------|--------------------------||
A ||--3------------------------|--3-----------------------||
E ||---------------------------|--------------------------||
Sin ti hay nada de todo.

LAm
E ||--------------0-----------|--------------1-----------|
B ||--------1--------1-----1--|--------1--------1-----1--|
G ||-----2-----2--------2-----|-----2-----2--------2-----|
D ||--------------------------|--------------------------|
A ||--0-----------------------|--0-----------------------|
E ||--------------------------|--------------------------|
Ya no existe nada.

Y AHORA SÓLO RASGADO:

DO FA DO REm
Nada vive

LAm FA
si no estoy pensándote.

DO REm
Nada es cierto

LAm FA
sin tu voz diciéndolo.

DO
Nada existe,

REm
nada vive,

LAm
ya no sirve nada
FA DO
cuando estoy tan solo.


AHORA EL RASGADO DE LA SEGUNDA GUITARRA UN POCO MÁS FUERTE:

DO y DO/RE
E ||--------------------------||
B ||--------1-----3--1-----1--||
G ||-----0-----0--------0-----||
D ||--------------------------||
A ||--3-----------------------||
E ||--------------------------||

DO y DO/RE
E ||--------------------------|--------------------------|--------------------------||
B ||--------1-----3--1-----1--|--------1-----3--1-----1--|--------1-----3--1-----1--||
G ||-----0-----0--------0-----|-----0-----0--------0-----|-----0-----0--------0-----||
D ||--------------------------|--------------------------|--------------------------||
A ||--3-----------------------|--3-----------------------|--3-----------------------||
E ||--------------------------|--------------------------|--------------------------||
Dime qué será que ya no lo

FA
E ||--------------1------------|--------------1-----------||
B ||--------1--------1-----1---|--------1--------1-----1--||
G ||-----2-----2--------2------|-----2-----2--------2-----||
D ||---------------------------|--------------------------||
A ||--3------------------------|--3-----------------------||
E ||---------------------------|--------------------------||
entiendo Dime que estoy

LAm DO y DO/RE
E ||--------------0-----------|--------------1-----------|--------------------------||
B ||--------1--------1-----1--|--------1--------1-----1--|--------1-----3--1-----1--||
G ||-----2-----2--------2-----|-----2-----2--------2-----|-----0-----0--------0-----||
D ||--------------------------|--------------------------|--------------------------||
A ||--0-----------------------|--0-----------------------|--3-----------------------||
E ||--------------------------|--------------------------|--------------------------||
haciendo recordándote más

DO y DO/RE
E ||--------------------------|--------------------------|--------------------------||
B ||--------1-----3--1-----1--|--------1-----3--1-----1--|--------1-----3--1-----1--||
G ||-----0-----0--------0-----|-----0-----0--------0-----|-----0-----0--------0-----||
D ||--------------------------|--------------------------|--------------------------||
A ||--3-----------------------|--3-----------------------|--3-----------------------||
E ||--------------------------|--------------------------|--------------------------||
Y ya no sé qué hacer no puedo ni

FA
E ||--------------1------------|--------------1-----------||
B ||--------1--------1-----1---|--------1--------1-----1--||
G ||-----2-----2--------2------|-----2-----2--------2-----||
D ||---------------------------|--------------------------||
A ||--3------------------------|--3-----------------------||
E ||---------------------------|--------------------------||
Abrazarte Tan sólo

LAm
E ||--------------0-----------|--------------1-----------||
B ||--------1--------1-----1--|--------1--------1-----1--||
G ||-----2-----2--------2-----|-----2-----2--------2-----||
D ||--------------------------|--------------------------||
A ||--0-----------------------|--0-----------------------||
E ||--------------------------|--------------------------||
imaginarte Y ya nada importa más


SÓLO RASGADO DE NUEVO Y SE REPITE DOS VECES:

DO FA DO REm
Nada vive

LAm FA
si no estoy pensándote.

DO REm
Nada es cierto

LAm FA
sin tu voz diciéndolo.

DO
Nada existe,

REm
nada vive,

LAm
ya no sirve nada
FA DO
cuando estoy tan solo.


ACORDES PARA GUITARRA

PIANO UKELELE
C
C/D
B
D
E
A
F
Am
Dm


COMENTARIOS

Aún no hay comentarios,

¡escribe el primero!

Para hacer una pregunta o dejar un comentario sobre esta canción, debes estar LOGUEADO

Las canciones más tocadas de Viento en contra

Toca una Canción al Azar de Viento en contra
C
C/D
B
D
E
A
F
Am
Dm

Nuestro servidor se demoró 0.08 segundos en generar esta página. Eso fue realmente muy rápido!