Princesa de seda (Acordes)

Viento en contra

Subida por KENTHSDQ

Compartir


Cambiar Cifrado
Americano Latino

Cambiar Tonalidad
-1 +1
Imprimir FAQ
+A
-A

Texto

Desplazamiento

Transportador

Color de Fondo

Archivos

TONALIDAD, TAMAÑO, CIFRADO, SCROL.

Nos renovamos: Ahora puedes cambiar TODO haciendo clic en ICONO de la Guitarra () que aparece en la parte inferior de esta página.


LETRA CON ACORDES

Un saludo a todos los fans de este gran grupo.
Dedicada esta canción para la P. d P.
Espero que les sirva de mucho y nos vemos en una próxima entrega.


Intro:
Primera guitarra (acústica o electroacústica)

E ||------------------------|------------------------|
B ||-------2-------2-----2--|-------1-------1-----1--|
G ||------------------------|------------------------|
D ||------------------------|------------------------|
A ||--4-4-----4-4-----4-----|--3-3-----3-3-----3-----|
E ||------------------------|------------------------|  Segunda guitarra
                                                         (eléctrica)
|------------------------|------------------------||      ||--3--||
|------------------------|-------1-------1-----1--||      ||--3--||
|-------3-------3-----3--|------------------------||      ||--4--||
|------------------------|------------------------||      ||--5--||
|--1-1-----1-1-----1-----|--3-3-----3-3-----3-----||      ||--5--||
|------------------------|------------------------||      ||--3--||
                                                            (SOL)
||------------------------|------------------------|
||-------2-------2-----2--|-------1-------1-----1--|
||------------------------|------------------------|
||------------------------|------------------------|
||--4-4-----4-4-----4-----|--3-3-----3-3-----3-----|
||------------------------|------------------------|
              Y allí va

|------------------------|------------------------||      ||--3--||
|------------------------|-------1-------1-----1--||      ||--3--||
|-------3-------3-----3--|------------------------||      ||--4--||
|------------------------|------------------------||      ||--5--||
|--1-1-----1-1-----1-----|--3-3-----3-3-----3-----||      ||--5--||
|------------------------|------------------------||      ||--3--||
   siempre soñando,         siempre imaginando.                   [Sol]

||------------------------|------------------------|
||-------2-------2-----2--|-------1-------1-----1--|
||------------------------|------------------------|
||------------------------|------------------------|
||--4-4-----4-4-----4-----|--3-3-----3-3-----3-----|
||------------------------|------------------------|
            Y allí está      

|------------------------|------------------------||      ||--3--||
|------------------------|-------1-------1-----1--||      ||--3--||
|-------3-------3-----3--|------------------------||      ||--4--||
|------------------------|------------------------||      ||--5--||
|--1-1-----1-1-----1-----|--3-3-----3-3-----3-----||      ||--5--||
|------------------------|------------------------||      ||--3--||
  con sus ojos bien abiertos.                                    [Sol]

||------------------------|------------------------|
||-------2-------2-----2--|-------1-------1-----1--|
||------------------------|------------------------|
||------------------------|------------------------|
||--4-4-----4-4-----4-----|--3-3-----3-3-----3-----|
||------------------------|------------------------|
            Y así se está

|------------------------|------------------------||      ||--3--||
|------------------------|-------1-------1-----1--||      ||--3--||
|-------3-------3-----3--|------------------------||      ||--4--||
|------------------------|------------------------||      ||--5--||
|--1-1-----1-1-----1-----|--3-3-----3-3-----3-----||      ||--5--||
|------------------------|------------------------||      ||--3--||
   encerrada en su mundo: nadie te molesta.                 [Sol]

||------------------------|------------------------|
||-------2-------2-----2--|-------1-------1-----1--|
||------------------------|------------------------|
||------------------------|------------------------|
||--4-4-----4-4-----4-----|--3-3-----3-3-----3-----|
||------------------------|------------------------|
           ¿Dónde estás? 

|------------------------||      ||--3--||
|------------------------||      ||--3--||
|-------3-------3-----3--||      ||--4--||
|------------------------||      ||--5--||
|--1-1-----1-1-----1-----||      ||--5--||
|------------------------||      ||--3--||
   ¡Que sigo persiguiéndote!           [Sol]


NOTA: Se oye mejor si tocas solo las tres cuerdas de arriba (E, A, D)


SOL#               LA#
    No me dejes en el olvido,

SI                 FA# Bsus2 FA#
dame otra oportunidad.

SOL#       LA#
    Enséñame el camino,

SI
llévame a ese lugar...



C#sus2         SOL#      LA#     FA#
      ¿Dónde está mi princesa de seda?

C#sus2       SOL#    LA#        FA#
      ¿Dónde va mi peligro provocante?

C#sus2         SOL#            LA#          FA#
      ¡Te pido por favor! ¿Por qué no me respondes?

C#sus2         SOL#       LA#     FA#
      ¿Dónde estás mi princesa de seda?


FA#          FA   MI           FA
   Y aquí esta, domina mi mente como me mira.

FA#        FA
   Y si no es suficiente: ¡Sigo persiguiéndote!



SOL#               LA#
    No me dejes en el olvido,

SI                 FA# Bsus2 FA#
dame otra oportunidad.

SOL#       LA#
    Enséñame el camino,

SI
llévame a ese lugar...


Nota: Como no estoy muy seguro de los nombres de los acordes, pues aquí les va la clave:

   SOL#           LA#            SI            FA#           Bsus2
||--4--||      ||--6--||      ||--7--||     ||--2--||      ||--2--||
||--4--||      ||--6--||      ||--7--||     ||--2--||      ||--2--||
||--5--||      ||--7--||      ||--8--||     ||--3--||      ||--4--||
||--6--||      ||--8--||      ||--9--||     ||--4--||      ||--4--||
||--6--||      ||--8--||      ||--9--||     ||--4--||      ||--2--||
||--4--||      ||--6--||      ||--7--||     ||--2--||      ||--2--||

 C#sus2            MI
||--4--||      ||--0--||
||--4--||      ||--0--||
||--2--||      ||--1--||
||--2--||      ||--2--||
||--4--||      ||--2--||
||--4--||      ||--0--||


Video Clip de Princesa de seda


ACORDES PARA GUITARRA

PIANO UKELELE
E
G
A
G
G#
A#
B
F#
Bsus2
C#sus2
F
E


TOP 20: Las más tocadas de Viento en contra


Acordes

Cerrar
E
G
A
G
G#
A#
B
F#
Bsus2
C#sus2
F
E

01.45


112