American Gigolo
Weezer
Acordes

Subida por Gus1975
Álbum: Maladroit ( 2002)


Más Versiones
Ver. 2 Ver. 3 Ver. 4 Ver. 5 Ver. 6

Cambiar Cifrado
Americano Latino

Cambiar Tonalidad
-1 +1

Partir Pantalla Imprimir FAQ

+A
-A


Ver solo la LETRA
Intro: 
e ----------------------------------------------------|
B ----------------------------------------------------|
G -----------------------x-x---5-5---6-6---7-7---x-x--|
D --x--3-3---4-4---5-5---x-x---5-5---6-6---7-7---x-x--| x2
A --x--3-3---4-4---5-5---x-x---3-3---4-4---5-5---x-x--|
E --x--1-1---2-2---3-3---x-x---------------------x-x--|

Verso: x2
e --------------------------------------|--------------|------------------------|
B --------------------------------------|--------------|------------------------|
G --------------------------------------|--------------|-----------7-7-7-7-7-7--|
D --------------------------------------|--------------|-----------7-7-7-7-7-7--|
A -----------------3--3-3--4-4--5-5-----|-5-5-5...~~~--|--5-5-5...-5-5-5-5-5-5--|
E --1-1--2-2--3-3--------------------1--|--------------|------------------------|
Sit down quiet everybody, we got a long way to go
I told you once before that you better not stop the show
Keep on, keep on, keep on, keep on,
Keep on, keep on, keep on, Yeah!

Refrão:
e -----------------------------|
B -----------------------------|
G --------------------3-3-3----| x4
D --3-3--3-3-3--3-----3-3-3----|
A --3-3--3-3-3--3-----1-1-1----|
E --1-1--1-1-1--1--------------|
If you want me, you can't have me
Cause you've got to understand me

INTRO

Verso: x2
e --------------------------------------|--------------|------------------------|
B --------------------------------------|--------------|------------------------|
G --------------------------------------|--------------|-----------7-7-7-7-7-7--|
D --------------------------------------|--------------|-----------7-7-7-7-7-7--|
A -----------------3--3-3--4-4--5-5-----|-5-5-5...~~~--|--5-5-5...-5-5-5-5-5-5--|
E --1-1--2-2--3-3--------------------1--|--------------|------------------------|
Back off, baby I'm a loner. I got a lotta' things to see
I told you once before that you better not take it from me
Keep on, keep on, keep on, keep on,
Keep on, keep on, keep on, Yeah!

Refrão:
e -----------------------------|
B -----------------------------|
G --------------------3-3-3----| x4
D --3-3--3-3-3--3-----3-3-3----|
A --3-3--3-3-3--3-----1-1-1----|
E --1-1--1-1-1--1--------------|
If you hate this, no I can't blame you
Because I'm hurting, so I'll flame you





Ponte: x3
e --------------------------------------|-------------------------------------|
B --------------------------------------|-------------------------------------|
G --3-3-3-3--5-5-5-5-----------7-7-7-7--|--3-3-3-3-3-3-3-3--2-2-2-2-2-2--x-x--|
D --3-3-3-3--5-5-5-5--3-3-3-3--7-7-7-7--|--3-3-3-3-3-3-3-3--2-2-2-2-2-2--x-x--|
A --1-1-1-1--3-3-3-3--3-3-3-3--5-5-5-5--|--1-1-1-1-1-1-1-1--0-0-0-0-0-0--x-x--|
E --------------------1-1-1-1-----------|--------------------------------x-x--|
I've seen this game before,
My love walks right to your door,
There ain't no hope for me anymore.

INTRO

SOLO

Refrão:
e -----------------------------|
B -----------------------------|
G --------------------3-3-3----| x4
D --3-3--3-3-3--3-----3-3-3----|
A --3-3--3-3-3--3-----1-1-1----|
E --1-1--1-1-1--1--------------|
If you hate this, no I can't blame you
Because I'm hurting, so I'll flame you

Ponte: x3
e --------------------------------------|-------------------------------------|
B --------------------------------------|-------------------------------------|
G --3-3-3-3--5-5-5-5-----------7-7-7-7--|--3-3-3-3-3-3-3-3--2-2-2-2-2-2--x-x--|
D --3-3-3-3--5-5-5-5--3-3-3-3--7-7-7-7--|--3-3-3-3-3-3-3-3--2-2-2-2-2-2--x-x--|
A --1-1-1-1--3-3-3-3--3-3-3-3--5-5-5-5--|--1-1-1-1-1-1-1-1--0-0-0-0-0-0--x-x--|
E --------------------1-1-1-1-----------|--------------------------------x-x--|
I've seen this game before,
My love walks right to your door,
There ain't no hope for me anymore.

INTRO (x3)

Outro: x2
e -------------------------|---------|
B -------------------------|---------|
G --5-5---6-6---7-7---x-x--|---------|
D --5-5---6-6---7-7---x-x--|---3~~---|
A --3-3---4-4---5-5---x-x--|---3~~---|
E --------------------x-x--|---1~~---|

ACORDES PARA GUITARRA

PIANO UKELELE


COMENTARIOS

Aún no hay comentarios,

¡escribe el primero!

Escribe una pregunta, duda o comentario sobre esta canción, te responderemos a la brevedad.

Las más tocadas de Weezer

Toca una Canción al Azar de Weezer