No one else
Weezer
Acordes

Subida por Mymusic23
Álbum: Weezer ( 1994)


Más Versiones
Ver. 2

Cambiar Cifrado
Americano Latino

Cambiar Tonalidad
-1 +1

Partir Pantalla Imprimir FAQ

+A
-A


Ver solo la LETRA
Intro 1 (this is the first thing i came up with)
-9-9-9-9-9-9---------------------------------------
-9-9-9-9-9-9-11-11-11-9-9-9--11-9-7-9--2-----------
-9-9-9-9-9-9-11-11-11-9-9-9--11-9-7-9--2-----------
-7-7-7-6-6-6-11-11-11-9-9-9--11-9-7-9--2-----------
-------------9--9--9--7-7-7--9--7-5-7--0-----------

Intro 2
------------------------------------------------
-9-9-9-9-9-9------------------------------------
-9-9-9-9-9-9-11-11-11-11-11-11--6-4-2-4-2-------
-9-9-9-9-9-9-11-11-11-11-11-11--6-4-2-4-2-------
-7-7-7-6-6-6-11-11-11-11-11-11--6-4-2-4-2-------
-------------9--9--9--7--7--7---4-2-0-2-0-------

Intro 3 (this is the same as the second one but harder to play but better sound
ing)
--------------------------------------------
-9-9-9-9-9-9--6-6-6-6-6-6-------------------
-9-9-9-9-9-9--6-6-6-6-6-6--6-4-2-4-2--------
-9-9-9-9-9-9--6-6-6-6-6-6--6-4-2-4-2--------
-7-7-7-6-6-6--4-4-4-2-2-2--6-4-2-4-2--------
---------------------------4-2-0-2-0--------
(which one sounds best?, please post comments, no email
thanx)



E A A/G#
My girl's got a big mouth
F# B B/A
With which she blabbers a lot
G# A G#
She laughs at most everything
F# B
Whether it's funny or not

C#m F#m
And if you see her
C#m F# G# B
Tell her it's over now

E B C#m A
I want a girl who will laugh for no one else
E B C#m A
When I'm away she puts her makeup on the shelf
E B C#m F# G# B
When I'm away she never leaves the house
E B C#m A
I want a girl who laughs for no one else

play Intro-

My girl's got eyeballs
in the back of her head
she looks around and around
you know it makes me sad to see her like that

Please don't believe her
she says that for anyone
and if you see her
tell her it's hey hey hey hey

I want a girl who will laugh for no one else
When I'm way she puts her makeup on the shelf
When I'm away she never leaves the house
I want a girl who laughs for no one else

G# A
And if you see her
G# A G# B E
tell her it's over now

-----------------------------------------------------------------------
-----------------------------------------------------------------------
--8-8-8--------------------------------------------4-----4-4-4---------
--------9-9-9-9-9--6-6-6----------------6-4-2-4/6----4---------6-6-6-6-
-------------------------7-7-7-7-7--4-7--------------------------------
-----------------------------------------------------------------------

------------------------------------------------------------------(16)-
----------------------------------------9-10/12--9-10-97/9------------
-6-6-6-------------9-9-9-----------------------------------------------
-------7-7-7-7-----------11-11-11-11-----------------------------------
-----------------------------------------------------------------------
-----------------------------------------------------------------------

And if you watch her go...
Watch her, watch her, watch her, watch her!

No one else, no one else
(play intro)

ACORDES PARA GUITARRA

PIANO UKELELE


COMENTARIOS

Aún no hay comentarios,

¡escribe el primero!

Escribe una pregunta, duda o comentario sobre esta canción, te responderemos a la brevedad.

Las más tocadas de Weezer

Toca una Canción al Azar de Weezer