Pink Triangle
Weezer
Acordes

Subida por Danicalero
Álbum: Pinkerton ( 1996)


Más Versiones
Ver. 2
HERRAMIENTAS

Cambiar Cifrado
Americano Latino

Cambiar Tonalidad
-1 +1

Partir Pantalla Imprimir FAQ

Ver solo la LETRA

+A
-A
LETRA CON ACORDES

¿Tu Guitarra esta Afinada? PRUEBA NUESTRO NUEVO AFINADOR

É recomendável utilizar a afinação com 1/2 tom a baixo

introdução (tem tipo um dedilhado/solo)

e|---3----------------5---------------7--------------------
b|-----------3----------------5----------------7-----------
g|---4----------------5---------------7----------------7---
d|---------------------------------------------------------
a|---------------------------------------------------------
e|---------------------------------------------------------

e|---5--------3----------------2-----------------3------------------------
b|---------------------3----------------3-----------------3-------------3-
g|---5--------4----------------2-----------------4---------------4--------
d|------------------------------------------------------------------------
a|------------------------------------------------------------------------
e|------------------------------------------------------------------------

verso

Em                                Am
when i'm stable long enough
   D                                 G    (F#m)
i start to look around for love
Em                              Am
see a sweet in floral print
      D                                  G
my mind begins the arrangement
Em  (começa um riff de fundo mas n tirei)                              Am
but when i start to feel that pull
D                                 G
turns out I just pulled myself
Em                                   Am
she would never go with me
 D                                         G
were i the last girl on earth

Refrão

G   Bm                C      G
i'm dumb she's a lesbian
   C                   G             D
i thought i had found the one
Em          Bm         C                   G
we were good as married in my mind
       C                  G             D
but married in my mind's no good
C     Bm  Am  D        Em
pink triangle on her sleeve
C                        G
let me know the truth
C        D             G
let me know the truth

solo

e|-------------------------------------------------------------------------------
b|-------------------------------------------------------------------------------
g|-------------------------------------------------------------------------------
d|-----------7------9------9^10-------10v----------4-----5------7-----7------9v--
a|---10--------------------------------------------------------------------------
e|-------------------------------------------------------------------------------

e|-------------------------------------------------------------------------------
b|-------------------------------------------------------------------------------
g|----------------------------------------------------------------------------7--
d|----------7------9------9^10--------10v----------9^10-r-9------------9------9--
a|--10---------------------------------------------------------------------------
e|-------------------------------------------------------------------------------

e|-------------------------------------------------------------------------------
b|-------------------------------------------------------------------------------
g|-------------------------------------------------------------------------------
d|---7^9-------9--------9------9-------7^9---------7--------5----------7---------
a|-------------------------------------------------------------------------------
e|-------------------------------------------------------------------------------

e|-------------------------------------------------------------------------------
b|-------------------------------------------------------------------------------
g|-------------------------------------------------------------------------------
d|---9-------9^10v---------7-------9-------10-s-12-------12-----12-----12--------
a|-------------------------------------------------------------------------------
e|-------------------------------------------------------------------------------

e|-------------------------------------------------------------------------------------
b|-------------------------------------------------------------------------------------
g|-----------------------------------------12------12------10-------10-------9-----10--
d|---10-------10-------9-------9-------------------------------------------------------
a|-------------------------------------------------------------------------------------
e|-------------------------------------------------------------------------------------

Final (outro)

C          D            G
let me know the truth////////////////// ¿Te Animas? Sube una canción a este sitio. //////////////////

ACORDES PARA GUITARRA

PIANO UKELELE
Em
Am
D
G
F#m
Bm
C


COMENTARIOS

Aún no hay comentarios,

¡escribe el primero!

Escribe una pregunta, duda o comentario sobre esta canción, te responderemos a la brevedad.

Las canciones más tocadas de Weezer

Toca una Canción al Azar de Weezer
Em
Am
D
G
F#m
Bm
C

04.15


Nuestro servidor se demoró 4.24 segundos en generar esta página. Claramente hay conexiones mas rápidas...