Pork And Beans
Weezer
Acordes

Subida por marianomartinez
Álbum: Weezer ( 2008)


Más Versiones
Ver. 2 Ver. 3 Ver. 4 Ver. 5 Ver. 6 Ver. 7 Ver. 8 Ver. 9 Ver. 10
HERRAMIENTAS

Cambiar Cifrado
Americano Latino

Cambiar Tonalidad
-1 +1

Partir Pantalla Imprimir FAQ

Ver solo la LETRA

+A
-A
LETRA CON ACORDES

¿Tu Guitarra esta Afinada? PRUEBA NUESTRO NUEVO AFINADOR

E|-----------------------|
B|-----------------------|
G|-----------------------|
D|----------3--1---------|
A|-------1---------------|
E|-2---------------------|

(verso 1)
They say I need some Rogaine to put in my hair
Work it out at the gym to fit my underwear
Oakley makes the shades that transform a tool
You'd hate for the kids to think that you lost your cool

 F#5                   C#5
I'ma do the things that I wanna do
 D#5                   B5
I ain't got a thing to prove to you
F#5                       C#5
I'll eat my candy with the pork and beans
D#5                    B5
Excuse my manners if I make a scene

B|---12---------------|
G|---15b(16)----------|

 F#5                     C#5
I ain't gonna wear the clothes that you like
D#5                  B5
I'm fine and dandy with the me inside
 F#5                       C#5
I look in the mirror and I'll take a peak
 D#5                      B5
I don't give a hoot about what you think

(verso 2)
Everyone likes to dance to a happy song (Hey, hey)
With a catchy chorus and beat so they can sing along (Hey, hey)
Timbaland knows the way to reach the top of the charts
Maybe if I work with him I can perfect the art

 F#5                    C#5
I'ma do the things that I wanna do
 D#5                   B5
I ain't got a thing to prove to you
F#5                       C#5
I'll eat my candy with the pork and beans
D#5                    B5
Excuse my manners if I make a scene

B|---12---------------|
G|---15b(16)----------|

 F#5                     C#5
I ain't gonna wear the clothes that you like
D#5                  B5
I'm fine and dandy with the me inside
 F#5                       C#5
I look in the mirror and I'll take a peak
 D#5                      B5
I don't give a hoot about what you think

C#5    Eb5        F5           Eb5          C#5
I dont care i don't care i dont care... etc...

 F#5                    C#5
I'ma do the things that I wanna do
 D#5                   B5
I ain't got a thing to prove to you
F#5                       C#5
I'll eat my candy with the pork and beans
D#5                    B5
Excuse my manners if I make a scene

B|---12---------------|
G|---15b(16)----------|

 F#5                     C#5
I ain't gonna wear the clothes that you like
D#5                  B5
I'm fine and dandy with the me inside
 F#5                       C#5
I look in the mirror and I'll take a peak
 D#5                      B5
I don't give a hoot about what you think

F#5 B5 C5

Se preferirem, também tem essa versão que eu tirei
/ = slide

(intro e versos)
E|-----------------------|
B|-----------------------|
G|-----------------------|
D|----------3--1---------|
A|-------1---------------|
E|-2---------------------|

(pré-refrão)
E|-----------------------|
B|-----------------------|
G|-----------------------|
D|5-5-*-5-5-*------------|
A|5-5-*-5-5-*------------|
E|3-3-*-3-3-*------------|

(refrão)
E|----------------|----------------|----------------|----------------|
B|----------------|----------------|----------------|----------------|
G|----------------|7-7-7-7-7-7-7-7-|9-9-9-9-9-9-9-9-|5-5-5-5-5-5-5-5-|
D|5-5-5-5-5-5-5-5-|7-7-7-7-7-7-7-7-|9-9-9-9-9-9-9-9-|5-5-5-5-5-5-5-5-|
A|5-5-5-5-5-5-5-5-|5-5-5-5-5-5-5-5-|7-7-7-7-7-7-7-7-|3-3-3-3-3-3-3-3-|
E|3-3-3-3-3-3-3-3-|5-5-5-5-5-5-5-5-|7-7-7-7-7-7-7-7-|3-3-3-3-3-3-3-3-|

I don't care
(cada nota varias vezes e vai mudando conforme for mudando o timbre da voz pro mais agudo)

E|-2---2---6---7-------|
B|-2---4---6---7-------|
G|-3---3---6---8-------|
D|---------------------|
A|---------------------|
E|---------------------|

(antes do último refrão)
E|----------------|----------------|
B|----------------|----------------|
G|5-5-5-5-5-5-5-5-|5-5-*-5-7-*-----|
D|5-5-5-5-5-5-5-5-|5-5-*-5-7-*-----|
A|3-3-3-3-3-3-3-3-|3-3-*-3-5-*-----|
E|3-3-3-3-3-3-3-3-|3-3-*-3-5-*-----|////////////////// ¿Te Animas? Sube una canción a este sitio. //////////////////

ACORDES PARA GUITARRA

PIANO UKELELE
F#5
C#5
D#5
B5
Eb5
F5
C5


COMENTARIOS

Aún no hay comentarios,

¡escribe el primero!

Escribe una pregunta, duda o comentario sobre esta canción, te responderemos a la brevedad.

Las canciones más tocadas de Weezer

Toca una Canción al Azar de Weezer
F#5
C#5
D#5
B5
Eb5
F5
C5

19.55


Nuestro servidor se demoró 6.78 segundos en generar esta página. Claramente hay conexiones mas rápidas...