Burndt Jamb
Weezer
Acordes

Subida por Nicogala1984
Álbum: Maladroit ( 2002)


Más Versiones
Ver. 2 Ver. 3 Ver. 4 Ver. 5 Ver. 6

Cambiar Cifrado
Americano Latino

Cambiar Tonalidad
-1 +1

Partir Pantalla Imprimir FAQ

+A
-A
 #1    #2  #3   #4   C#m   D    Bm    E   A5    F5   G5
e-4----2----5----4----4----5----2-----------------------
B-2----2----3----3----5----7----3-----------------------
G-2----2----4----4----6----7----4-----1----------------- Esses são os acordes usados.
D-2----2--------------6----7----4-----2----7----3----5--
A---------------------4---------------2----7----3----5--
E-------------------------------------0----5----1----3--

Intro:
#1 #2 #3 #4

#1 #2 #3 #4
Gothic Flavor, How I miss you
#1 #2 #3 #4
If I Only, Once could kiss you
C#m D
I'd be happy, For one moment
Bm E
Of my life time, I'll be there

#1 #2 #3 #4
And the water, Running over
#1 #2 #3 #4
Me is are growing, ever colder
C#m D
Make me happy, for one moment
Bm E
of my lifetime, I'll be there

Riff:
e--------------------|--------------------|----------------------|-----------------------|
B--------------------|--------------------|----------------------|-----------------------|
G---------------5-7~9|---------------5-7~9|----------------5-7~9-|----------------5-7~9--|
D-7-7-7-5-7-5-7------|-7-7-7-5-7-5-7------|--3-3-7-5-7-5-7-------|--5-5-7-5-7-5-7--------|
A-7-7----------------|-7-7----------------|--3-3-----------------|--5-5------------------|
E-5-5----------------|-5-5----------------|--1-1-----------------|--3-3------------------|

INTRO

Solo:
e---------------------------------------------------------------------------------|
B--------------17--17------------------17--14141414--19--15151515--21--17171717---|
G----/14-----16--16---b16--14--16161616-------------------------------------------|
D---------------------------------------------------------------------------------|
A---------------------------------------------------------------------------------|
E---------------------------------------------------------------------------------|

C#m D
Make me happy, for one moment
Bm E
Of my lifetime, id be there...

INTRO

Outro:

#1 #3 ...

ACORDES PARA GUITARRA

PIANO UKELELE


COMENTARIOS

Aún no hay comentarios,

¡escribe el primero!

Escribe una pregunta, duda o comentario sobre esta canción, te responderemos a la brevedad.

Las más tocadas de Weezer

Toca una Canción al Azar de Weezer