Devotion
Weezer
Acordes

Subida por Zaa727


Más Versiones
Ver. 2 Ver. 3 Ver. 4 Ver. 5 Ver. 6

Cambiar Cifrado
Americano Latino

Cambiar Tonalidad
-1 +1

Partir Pantalla Imprimir FAQ

+A
-A
Album: El Scorcho (Single/Ep)

Tuning: half step down

Intro Riff:
E F# B E
-------12-14-16-16-14-12----16-14-12----12-----------------------------
-12-12-------------------14----------14----14-12~~---------------------
-----------------------------------------------------------------------
-----------------------------------------------------------------------
-----------------------------------------------------------------------
-----------------------------------------------------------------------

Verse 1:
Em F# B Em
Suddenly our shortcomings don't seem to matter that much
Em F# B
Your IQ is 20 points low and I'm no Six Foot Hot Look
Em
All American Man

Pre Chorus 1:
C# A
Sad to say I pushed you away
B Em
waiting for "Mrs. Right"

Chorus:
highE B
You never gave up
Em F# B Em
Em F# B Em
I too am waiting for you, I'll always be your friend

Interlude:

E F# B E
-------12-14-16-16-14-12----16-14-12----12-----------------------------
-12-12-------------------14----------14----12~~------------------------
-----------------------------------------------------------------------
-----------------------------------------------------------------------
-----------------------------------------------------------------------

Verse 2:
I commend your stubborness
without it we'd never got this far
I am done with perfection
Chasing her leaves me with nothing but pain

Pre Chorus 2:
Unlike you, she isn't true
She's got her own concerns

Chorus:
You never gave up
you'll always be my girlfriend
I toowaiting for you,
I'll always be your friend

Solo:
Em Am B E
E----------------------------------------------------------------------
B----------------------------------------------------------------------
G--4/12--124--5--4--2--4--2--0--2--0----------------------------------
D------------------------------------------------4--4--4b5---2---------
A----------------------------------------------------------------------
E----------------------------------------------------------------------


Em Am B E
E-----------------------------------------------------------------------
B---12-12-12-13b12b13-12-16-19-19-16------------------------------------
G------------------------------------16-14-11-11-11-11h12-9-------------
D-----------------------------------------------------------------------
A-----------------------------------------------------------------------
E-----------------------------------------------------------------------

Chrous;
you'll always be my girlfriend
I too, waiting for you
I'll always be your friend

ACORDES PARA GUITARRA

PIANO UKELELE


COMENTARIOS

Aún no hay comentarios,

¡escribe el primero!

Escribe una pregunta, duda o comentario sobre esta canción, te responderemos a la brevedad.

Las más tocadas de Weezer

Toca una Canción al Azar de Weezer