Dope Nose
Weezer
Acordes

Subida por RIKIAGUIRRE
Álbum: Maladroit ( 2002)


Más Versiones
Ver. 2 Ver. 3 Ver. 4 Ver. 5 Ver. 6

Cambiar Cifrado
Americano Latino

Cambiar Tonalidad
-1 +1

Partir Pantalla Imprimir FAQ

+A
-A
Ps. I don't have the solo but you can improve with the pentatonic minor scale on the 5th fret.

Chords your going to need-
A5 D5 A E5 E#5
e------------------------------------------
b------------------------------------------
g-----7---6---9---10-----------------------
d-7---7---7---9---10-----------------------
a-7---5---7---7---8------------------------
E-5---5---5---7---8------------------------

*=Palm mute

Intro-
A5 D5 A

Verse
A5* D5* A*
Dead, on my head
A5* E5* A*
Waisting time, on my own

(little Lynyrd Skynyrd type riff[riff A]-
e-------------------------
b-------------------------
g-------------------------
d------7h9*7*-------------
a--7h9*------9*7*9*-------
e-------------------------
play that after the second line of each verse)

A5* D5* A*
Sleep, rescues me
A5* E5*
Take me back
A5*
To my home

Chorus-

D5 A
For the times
E5 A5
That you wanna go and
D5 A5 E5
Bus rides real slow
D5 A
Ill be there
E5 A
Slap you on the face and
D5 A E5
Enjoy the show...
E#5
Its Dope Nose...
(repeat intro)

That should get you through the whole song, what ive tabbed out will work for both verse and both choruses. Sorry I don't have the solo,
but when I do figure it out, Ill put it here first.

Love, Andy

ACORDES PARA GUITARRA

PIANO UKELELE


COMENTARIOS

Aún no hay comentarios,

¡escribe el primero!

Escribe una pregunta, duda o comentario sobre esta canción, te responderemos a la brevedad.

Las más tocadas de Weezer

Toca una Canción al Azar de Weezer