El Scorcho
Weezer
Acordes

Subida por karjoe
Álbum: Pinkerton ( 1996)


Más Versiones
Ver. 2 Ver. 3 Ver. 4 Ver. 5
HERRAMIENTAS

Cambiar Cifrado
Americano Latino

Cambiar Tonalidad
-1 +1

Partir Pantalla Imprimir FAQ

Ver solo la LETRA

+A
-A
LETRA CON ACORDES

¿Tu Guitarra esta Afinada? PRUEBA NUESTRO NUEVO AFINADOR

intro/verse
-----------

e-----------------------------------
b-----------------------------------
g-------5v------------10v-----------
d-----------6--------------11-------                                           
a----6------------11----------------
e-4------------9--------------------
 god    damn  you  half ....


chorus
------

e-----------------------------------
b-----------------------------------
g-------5v------------10v-----------
d-----------6--------------11-------
a----6------------11----------------
e-4------------9--------------------
   i'm  a lot  like  you  so please

Bridge
---------

e-----------------------------------------------------------
b-----------------------------------------------------------
g-----------------------------------------------------------
d-------------6-6-6-6-6-6-------------8-8-8-8-8-8-----------  3X
a-6-6-6-6-6-6-4-4-4-4-4-4-8-8-8-8-8-8-6-6-6-6-6-6-----------
e-4-4-4-4-4-4-------------6-6-6-6-6-6-----------------------
   how  stupid is it? i can't talk about it



solo  (try 1)
----

e-------------------13--12--18--16--15h-16--20------18s-20--
b-11--13-----9--11------------------------------------------
g---------9-------------------------------------17---------- 
d-----------------------------------------------------------
a-----------------------------------------------------------
e-----------------------------------------------------------



solo    (try 2)
-------


E-----------------------------------13---11--------18-16-15/1615-
B----11---13---------------11-----------------------------------------
G-----------------------13--------------------------------------------
D-----------------14--------------------------------------------------
A---------------------------------------------------------------------
E---------------------------------------------------------------------

E----------------------20-------------18/----------------------------
B----16b--------------------16----------------------------------------

solo 3   (try 3)
-------


e--------------------------------------------------------------
B--------------------------------11--9--8h9-------13------11h13
G--------------------------9-8---------------8-----------------
D---8------10--------6--8-----------------------------13-------
A-------------7------------------------------------------------
E--------------------------------------------------------------////////////////// ¿Te Animas? Sube una canción a este sitio. //////////////////

ACORDES PARA GUITARRA

PIANO UKELELE


COMENTARIOS

Aún no hay comentarios,

¡escribe el primero!

Escribe una pregunta, duda o comentario sobre esta canción, te responderemos a la brevedad.

Las canciones más tocadas de Weezer

Toca una Canción al Azar de Weezer

22.55


Nuestro servidor se demoró 0.01 segundos en generar esta página. Eso fue realmente muy rápido!